Song name
# A B C D E F G H I J K L M N O P Q R S T U V W X Y Z

Misc Unsigned Bands - Black Fate - Untitled tab

----------------------------------------------------------------------------
			     untitled-BLACK FATE
----------------------------------------------------------------------------
Tabbed by:JIMMY
Email:

Tuning:STANDARD
play 6 times    dist.
e|--------------------------------------------------------------------------|
B|--------------------------------------------------------------------------|
G|--------------------------------------------------------------------------|
D|--------------------------------------------------------------------------|
A|---7-9-9-9-9-9-9-12-12------5-7-7-7-7-7-7-10-10---------------------------|
E|---5-7-7-7-7-7-7-10-10------3-5-5-5-5-5-5--8--8---------------------------|
PM...............................................

e|--------------------------------------------------------------------------|
B|--------------------------------------------------------------------------|
G|--------------------------------------------------------------------------|
D|---7/9-9-9-9-9-9--12-12-----5/7-7-7-7-7-7-10-10---------------------------|
A|---5/7-7-7-7-7-7--10-10-----3/5-5-5-5-5-5-8--8----------------------------|
E|--------------------------------------------------------------------------|

| /  slide up
| \  slide down
| h  hammer-on
| p  pull-off
| ~  vibrato
| +  harmonic
| x  Mute note
===============================================================================
Tap to rate this tab
 
# A B C D E F G H I J K L M N O P Q R S T U V W X Y Z