Song name
# A B C D E F G H I J K L M N O P Q R S T U V W X Y Z

Misc Unsigned Bands - Black Tuesday - Pipeline G1 tab

E|--------------|-----------|--------------|-----------------|
B|--------------|-----------|--------------|-----------------|
G|-----/--/--/--|--/--------|-----/--/--/--|--/--/--/--------|
D|-----/--/--/--|--/--------|-----/--/--/--|--/--/--/--------|
A|--2-----------|------e----|--2-----------|------------s----|
E|--0-----------|-----12\---|--0-----------|-----------12/---|
                   pm|---|   

E|--------------|-------------|-------------|-------------| x2
B|--------------|-------------|-------------|-------------|
G|--------------|-------------|-------------|-------------|
D|--------------|-------------|-------------|-------------|
A|---2--2--2--2-|--2--2--2--2-|--2--2--2--2-|--2--2--2--2-|
E|--0--3--0--3--|-0--3--0--3--|-0--3--0--3--|-0--3--0--3--|
 pm|-----------------------------------------------------|

E|------------|-----------|------------|-----|
B|------------|-----------|------------|-----|
G|------------|-----------|------------|-----|
D|------------|-4-------4-|--4---------|-----|
A|----5-7-5-7-|---7-5-7---|7---7-5-7-5-|-----|
E|--7---------|-----------|------------|--7--|

E|------------|----------|------------|------|
B|------------|----------|------------|------|
G|------------|4-------4-|--4---------|------|
D|----5-7-5-7-|--7-5-7---|7---7-5-7-5-|------|
A|--7---------|----------|------------|--7---|
E|------------|----------|------------|------|

E|---------------|--------------------|---------------|
B|---------------|--------------------|---------------|
G|---------------|--------------------|---------------|
D|--999--999--99-|-101010-101010-1010-|-999--999--99--|
A|--999--999--99-|-101010-101010-1010-|-999--999--99--|
E|--777--777--77-|-8-8-8--8-8-8--8-8--|-777--777--77--|
 pm|------------------------------------------------|

E|---------------------|--------------|---------------|------|
B|---------------------|--------------|---------------|------|
G|---------------------|--------------|---------------|------|
D|--101010-101010-1010-|-999--999--99-|-999--999--99--|--7~--|
A|--101010-101010-1010-|-999--999--99-|-999--999--99--|--7~--|
E|--8-8-8--8-8-8--8-8--|-777--777--77-|-777--777--77--|--5~--|
 pm|------------------------------------------------|

E|--------------|-----------|--------------|-----------------|
B|--------------|-----------|--------------|-----------------|
G|-----/--/--/--|--/--------|-----/--/--/--|--/--/--/--------|
D|-----/--/--/--|--/--------|-----/--/--/--|--/--/--/--------|
A|--2-----------|------e----|--2-----------|------------s----|
E|--0-----------|-----12\---|--0-----------|-----------12/---|
                   pm|---|   

E|--------------|-------------|-------------|-------------| x2
B|--------------|-------------|-------------|-------------|
G|--------------|-------------|-------------|-------------|
D|--------------|-------------|-------------|-------------|
A|---2--2--2--2-|--2--2--2--2-|--2--2--2--2-|--2--2--2--2-|
E|--0--3--0--3--|-0--3--0--3--|-0--3--0--3--|-0--3--0--3--|
 pm|-----------------------------------------------------|

E|------------|-----------|------------|-----|
B|------------|-----------|------------|-----|
G|------------|-----------|------------|-----|
D|------------|-4-------4-|--4---------|-----|
A|----5-7-5-7-|---7-5-7---|7---7-5-7-5-|-----|
E|--7---------|-----------|------------|--7--|

E|------------|----------|------------|------|
B|------------|----------|------------|------|
G|------------|4-------4-|--4---------|------|
D|----5-7-5-7-|--7-5-7---|7---7-5-7-5-|------|
A|--7---------|----------|------------|--7---|
E|------------|----------|------------|------|

E|---------------|--------------------|---------------|
B|---------------|--------------------|---------------|
G|---------------|--------------------|---------------|
D|--999--999--99-|-101010-101010-1010-|-999--999--99--|
A|--999--999--99-|-101010-101010-1010-|-999--999--99--|
E|--777--777--77-|-8-8-8--8-8-8--8-8--|-777--777--77--|
 pm|------------------------------------------------|

E|---------------------|--------------|---------------|
B|---------------------|--------------|---------------|
G|---------------------|--------------|---------------|
D|--101010-101010-1010-|-999--999--99-|-999--999--99--|
A|--101010-101010-1010-|-999--999--99-|-999--999--99--|
E|--8-8-8--8-8-8--8-8--|-777--777--77-|-777--777--77--|
 pm|------------------------------------------------|

E|---------------------|--------------------|---------------------|
B|---------------5-----|--------------3-----|--------------1------|
G|--5----------5---7-5-|-4----------4---5-4-|-2----------2---4-2--|
D|----7-7--7-7---------|---5-5--5-5---------|---3-3--3-3----------|
A|---------------------|--------------------|---------------------|
E|---------------------|--------------------|---------------------|

E|----------------------| 1st x2     |------|
B|---------------3------| 2nd x4/x8  |------|
G|--4----------4---5-4--|            |------|
D|----5-5--5-5----------|            |------|
A|----------------------|            |--2~--|
E|----------------------|            |--0~--|

E|-----------|
B|-----------|
G|-----------|
D|-----------|
A|---e----2--|
E|--12\0--0--|






Tap to rate this tab
# A B C D E F G H I J K L M N O P Q R S T U V W X Y Z