Song name
# A B C D E F G H I J K L M N O P Q R S T U V W X Y Z

Misc Unsigned Bands - Kings Of Death - The Dentist Is A Murderer tab

Order: Chorus 1
       Chorus 2
       Verse 1
       Verse 2
       Chorus 1
       Chorus 2
       Verse 1
       Verse 2
       Chorus 1
       Chorus 2
       Guitar Solo
       Lunchbox Solo
       Chorus 1
       Chorus 2

Chorus 1:
--------------------------------------------------------------|
--------------------------------------------------------------|
--------------------------------------------------------------|   x2
--------------------------------------------------------------|
0--3-5-0--36/5-0--3-5-0--36/5-0--3-5-0--36/5-0--3-5-0-0/12----|
0--3-5-0--36/5-0--3-5-0--36/5-0--3-5-0--36/5-0--3-5-0-0/12----|
                                                    PM=I

Chorus 2:
---------------------------------------------------------------|
---------------------------------------------------------------|
---------------------------------------------------------------|    x2
0--3-5-0--36/5-0--3-5-0--36/5-0--3-5-0--36/5-0--3-5------------|
-----------------------------------------------------0-0/12----|
-----------------------------------------------------0-0/12----|
                                                     PM=I

Verse 1:
---------------------------------------------------------|
---------------------------------------------------------|
---------------------------------------------------------|
---------------------------------------------------------|
000000003333556/5/3000000003333556/5/3000000003333556/5/3
000000003333556/5/3000000003333556/5/3000000003333556/5/3

-------------------|
-------------------|
-------------------|
-------------------|
000000003---5------|
000000003---5------|

verse 2:
---------------------------------------|
---------------------------------------|
---------------------------------------|
---------------------------------------|
0---------3-----5----0---------3-----5-|
0---------3-----5----0---------3-----5-|

---------------------------------------------|
---------------------------------------------|
---------------------------------------------|
---------------------------------------------|      x2
0---------3-----5----0---------3-----5-------|
0---------3-----5----0---------3-----5-------|

Guitar Solo:
--------------------------------------|
--------------------------------------|
5-5-7-5-5-7-5-5-7-5-5-7-7-5-7-5-------|
-7-----7-----7-----7-----------7-5----|
----------------------------------7-5-|
--------------------------------------|

--------------------------------------------------9--10-|
---------------------------------------------12-9-------|
------5-7---------5-7---------5-7-------12-10-----------|
---5-7---5-7---5-7---5-7---5-7---5-7/9-7----------------|
5-7---------5-7---------5-7-----------------------------|
--------------------------------------------------------|

(Tapping on 15th Fret between each note)[Hard to transcribe!!!]

9-12-9-12-9-12-9-12-9-12-9-12-9-12-9-12-----|
--------------------------------------------|
--------------------------------------------|    x4
--------------------------------------------|
--------------------------------------------|
--------------------------------------------|

(b/up)(b/up)(b/up)(b/up)
15----15----15----15----15--12---------|
--------------------------------15--12-|
---------------------------------------|
---------------------------------------|
---------------------------------------|
---------------------------------------|

                                       (b/up)
-----12-15-----12-15-----12-15-----12-15-15-12---------------------|
12-15-----12-15-----12-15-----12-15-----------15-12----------------|
---------------------------------------------------15-12-----------|
-------------------------------------------------------------12-15-|
--------------------------------------------------------12-15------|
-------------------------------------------------------------------|

Lunchbox Solo
----------------------------------------------------------|
----------------------------------------------------------|
----------------------------------------------------------|    x2
0--3-5-0--36/5-0--3-5-0--36/5-0--3-5-0--36/5-0--3-5-/12---|
----------------------------------------------------------|
----------------------------------------------------------|
PM==================================================I


That's about it for Kings Of Death's most infamous single, The Dentist
Enjoy!!!
Tap to rate this tab
 
# A B C D E F G H I J K L M N O P Q R S T U V W X Y Z