Song name
# A B C D E F G H I J K L M N O P Q R S T U V W X Y Z

Misc Unsigned Bands - Rof - Burnt Flesh tab

Verse 1

e--------------------------------|
b--------------------------------|
g-----------------------     X 6-|
d--------------------------------|
a-00-55-00-55-00-55-77-88--------|
e-00-33-00-33-00-33-55-66--------|

chorus

e------------------------|
b------------------------|
g----------------    X 4-|
d------------------------|
a-2-2-2-2-1-1-0-0--------|
e-4-4-3-3-2-2-1-1--------|

Verse 2

e-------------------------------------------|
b-------------------------------------------|
g-------------------------------------------|
d-0-00h0-5-55h5-0-00h0-5-55h5-0-00h0-5-55h5-|
a-0-00h0-3-33h3-0-00h0-3-33h3-0-00h0-3-33h3-|
e-------------------------------------------|

----------------|
----------------|
----------------|     X6
----------------|
-7-77h7-8-88h8--|
-5-55h5-6-66h6--|

e------------------------|
b------------------------|
g------------------------|   X4
d------------------------|
a------------------------|
e-55-66-55-66-55-66-55---|
(fade out with the music!!!)

Song setup

Verse 1
Chorus
verse 1
Chorus
verse 2
Chorus
Outro
Tap to rate this tab
# A B C D E F G H I J K L M N O P Q R S T U V W X Y Z