Song name
# A B C D E F G H I J K L M N O P Q R S T U V W X Y Z

Misc Unsigned Bands - Black Intent - Little Things tab

Song: Little Things
Artist: Black Intent
Album: President Grim
---
---
GUITAR I (Rhythm) - Dave Wyatt
---
No GUITAR II in this song.
---
TAB LEGEND
*=Harmonic
/=Slide Up
\=Slide Down
---
PART I = Little Things
GUITAR I
e|-------------------------------------------|
B|-------------------------------------------|
G|----------------------9-9-9-9-9-6-6-6-6-6--|
d|--6-6-6-6-6-9-9-9-9-9-9-9-9-9-9-6-6-6-6-6--|  x3
A|--6-6-6-6-6-9-9-9-9-9-7-7-7-7-7-4-4-4-4-4--|
D|--4-4-4-4-4-7-7-7-7-7----------------------|
PM

GUITAR I
e|-----------------------|
B|-----------------------|
G|-----------------------|
d|--6-6-6-6-6-9-9-9-9-9--|
A|--6-6-6-6-6-9-9-9-9-9--|
D|--4-4-4-4-4-7-7-7-7-7--|
PM

GUITAR I (7th Time, let last chord ring out)
e|-------------------------------------------|
B|-------------------------------------------|
G|----------------------9-9-9-9-9-6-6-6-6-6--|
d|--6-6-6-6-6-9-9-9-9-9-9-9-9-9-9-6-6-6-6-6--| x7
A|--6-6-6-6-6-9-9-9-9-9-7-7-7-7-7-4-4-4-4-4--|
D|--4-4-4-4-4-7-7-7-7-7----------------------|
PM
---
PART II: Leave Me Be
Verse
GUITAR I
e|-------------|
B|-------------|
G|-------------|
d|-------------|  x5
A|--------6-6--|
D|--------4-4--|
PM        * *

Chorus
GUITAR I (3rd time, let last chord ring out)
e|------------------------|
B|------------------------|
G|----------8-8--8-8-8-8--|
d|--6-6-6-6-8-8--8-8-8-8--| x3
A|--6-6-6-6-6-6--6-6-6-6--|
D|--4-4-4-4---------------|
PM

Last Part
GUITAR I
e|--------------|
B|--------------|
G|--8~--8~--8~--|
d|--8~--8~--8~--|
A|--6~--6~--6~--|
D|--------------|
PM
---
Part III: Brain Dead I
Verse
GUITAR I
e|-----------------------------------|
B|-----------------------------------|
G|----------4-4-4-4-5-5-5-5-6-6-6-6--|
d|--2-2-2-2-4-4-4-4-5-5-5-5-6-6-6-6--|  x2
A|--2-2-2-2-2-2-2-2-3-3-3-3-4-4-4-4--|
D|--0-0-0-0--------------------------|
PM

Chorus
GUITAR I
e|-----------------------|
B|-----------------------|
G|-----------------------|
d|------5-5-2-2-2-2-2-2--|  x2
A|------5-5-2-2-2-2-2-2--|
D|--x-x-3-3-0-0-0-0-0-0--|
PM
---
Part IV: Brain Dead II
Second Half
GUITAR I (2nd time, let last chord ring out)
e|-----------------------------------|
B|-----------------------------------|
G|-----------------------------------|
d|--2-2-2-2-5-5-5-5-7-7-7-7-8-8-8-8--|  x2
A|--2-2-2-2-5-5-5-5-7-7-7-7-8-8-8-8--|
D|--0-0-0-0-3-3-3-3-5-5-5-5-6-6-6-6--|
PM
---
Song order
---
PART I: LITTLE THINGS
Play all it says

PART II: LEAVE ME BE
Verse
Chorus
Verse
Chorus x4
Last Part

PART III: BRAIN DEAD I
Verse
Chorus
Verse
Chorus

PART IV: BRAIN DEAD PART II
Drums only in first half
Second half
Tap to rate this tab
# A B C D E F G H I J K L M N O P Q R S T U V W X Y Z