Song name
# A B C D E F G H I J K L M N O P Q R S T U V W X Y Z

Misc Unsigned Bands - From Beneath The Casket - Track 1 tab

Track 1

/ = double picking
\ = hammer on
* = harmonic
Intro
4x's

-----0--0----0----0-----0-----0----0-----0----0----0----0-------------------|
--5----5----5----4-----8----8-----7----7-----5----5----5----4---10/8/7---5--|
----------------------------------------------------------------------------|
----------------------------------------------------------------------------|
----------------------------------------------------------------------------|
----------------------------------------------------------------------------|

-----0----0----0----0----0----0----0----0----0----0----0--------------|
--5----5----5----4----8----8----7----7----5----5----5----4---5/8/4/7--|
----------------------------------------------------------------------|
----------------------------------------------------------------------|
----------------------------------------------------------------------|
----------------------------------------------------------------------|

Verse
2x's

--0-0---0-------0----0----0-0------8---8--8---8--------7--7----7-------|
-------5----4\5----8----7-------10------8----7----8\7--7-----8----7\8--|
---------------------------------------------8-----------------7-------|
-----------------------------------------------------------------------|
-----------------------------------------------------------------------|
-----------------------------------------------------------------------|

--0-0---0-------0----0----0-0------8---8--8---8--------7---7--------------------------------|
-------5----4\5----8----7-------10------8----7----8\7--7----7-----7\9\10--------------------|
---------------------------------------------8-----------------7-----7--------------7\9\10--|
--------------------------------------------------------------------------------------------|
--------------------------------------------------------------------------------------------|
--------------------------------------------------------------------------------------------|

On the last one just strum it open( just the top 3 strings), then miguel comes in, then 
hits the cowbell, then you come in.

Breakdown

-000--000---000--000( then miguel does his part)--|
--------------------------------------------------|
--------------------------------------------------|
--------------------------------------------------|
--------------------------------------------------|
--------------------------------------------------|


--000--000--000--000--1--0--4--0--3---------------------|
--------------------------------1--0--4--0--3-----------|
--------------------------------1---0--4--0--3----------|
----------------------------------------------------*5--|
--------------------------------------------------------|
--------------------------------------------------------|


then repeat the intro another 4 times ut on the last one do this.

outro
I think 6 times

-5/8/4/7--|
----------|
----------|
----------|
----------|
----------|
Tap to rate this tab
# A B C D E F G H I J K L M N O P Q R S T U V W X Y Z