Guitaretab - guitar tabs
Song name
# A B C D E F G H I J K L M N O P Q R S T U V W X Y Z

Misc Unsigned Bands - Sincerely Till The End - Heart Throbs And Heart Attacks tab

soft part (no distortion)  GUITAR 1
e ------------------------------------------------------------------|
B ------------------------------------------------------------------|
G ------------------------------------------------------------------|
D ------------------------------------------------------------------|
A 7--7-7-7-7--8--8-8-8-8--10--10-10-10-10--8--8-8-8-8---------------|
D 0--0-0-0-0--0--0-0-0-0--0---0--0--0--0---0--0-0-0-0---------------|


e ------------------------------------------------------------------|
B ------------------------------------------------------------------|
G ------------------------------------------------------------------|
D ------------------------------------------------------------------|
A 7--7-7-7-7--8--8-8-8-8--10--10-10-10-10--8--8-8-8-8---------------|
D 7--7-7-7-7--0--0-0-0-0--0---0--0--0--0---0--0-0-0-0---------------|
[ Tab from: http://www.guitaretab.com/m/misc-unsigned-bands/84051.html ]
accompaniment for soft part (heavy distortion) GUITAR 2
e ------------------------------------------------------------------|
B ------------------------------------------------------------------|
G ------------------------------------------------------------------|
D ------------------------------------------------------------------|
A 7-7-7--8-8-8--10-10-10--8-8-8--------8-8-8--10-10-10--8-8-8-------|
D -------------------------------7-7-7------------------------------|


heavy part (heavy distortion)  GUITAR 1
e ------------------------------------------------------------------|
B ------------------------------------------------------------------|
G ------------------------------------------------------------------|
D ------------------------------------------------------------------|
A --------7~---------8~---------10~---------8~----------------------|
D 00000000---00000000---00000000----00000000------------------------|
  ''''''''   ''''''''   ''''''''    ''''''''

breakdown (heavy distortion)  GUITAR 1
e ------------------------------------------------------------------|
B ------------------------------------------------------------------|
G ------------------------------------------------------------------|
D ------------------------------------------------------------------|
A ----7~----8~-----10~-----8~---------------------------------------|
D 0-00---000---0-00----0-00-----------------------------------------|

SONG ORDER:
SOFT PART 1X
SOFT PART 2X WITH ACCOMPANIMENT (2X ALSO)
HEAVY PART 2X
SOFT PART 2X
HEAVY PART 2X
BREAKDOWN 2X
HEAVY PART 2X
SOFT PART 2X

myspace.com/xsincerelytilltheendx
Related for Sincerely Till The End - Heart Throbs And Heart Attacks tab
Advertisement will be closed in 10 seconds