Song name
# A B C D E F G H I J K L M N O P Q R S T U V W X Y Z

Misc Unsigned Bands - First Murdehh After Midnight - Carls Glah Festival Solo tab

 This is Carls live solo from the G.L.A.H. Movies convention that First Murdehh After
played at!!! I have also put in the speech that Carl says before the solo!!!!
 I also got the oppurtunie to speak to Carl himself after the gig and he told me all
the rig he used for the solo, here it is:

Guitar: Schecter S1 Elite,
Pedal : Pod XT-Live,
Amp   : Marshall Mg100HDFX Half Stack

Carl normally uses a much more excentric rig, but this being a small-ish gig, he went
a more basic setup!!!

This is a very hard solo, its fast and involves some very technical parts!!! But if you
practicing your bound to get it, it has some excerpts from Classical songs too!!!! First
After Midnight is by far my favourite band!!!!
First Murdehh After Midnight is:
Louis Finch - Vocals
Carl Russell - Lead Guitar + Backing Vocals
Peter Thripp - Rythym Guitar + Backing Vocals
Ben Brown - Bass Guitar
Keiron Rodgers - Drums + Backing Vocals

Heres the tab:

Carl: "Hey, hows everyone doing out there today??? yeah, you guys all seem pretty god
f**king hyped up, so how about a solo??? Not just any solo, a Carl f**king Russell solo!!!
here it fucking is, Rock On!!!"


 The Solo
  Rubato (Free-Time) Q=100
 4/4
  Gtr I
|-13-12-10--------------------10------------------------------------------------------------|
|----------13-11-10--------------13-11-10------------11-13-11-10----------------------------|
|-------------------13-12-10--------------12-10-9----------------12-10-9--------------12-10-|
|-------------------------------------------------12---------------------12-11--------------|
|------------------------------------------------------------------------------13-12--------|
|-------------------------------------------------------------------------------------------|


                                                  ~~
|-----------------------------------------------------------|
|-----------------------------------------------------------|
|-9---------------------------------------------------------|
|---12-11----------11-12-11---------------------------------|
|---------13-12-10----------13-12-10------------------------|
|------------------------------------15-14-12-11-12--(12)\--|


              Flight Of The Bumblebee
           H=H
                                                            9x
|----------||--10-11-10-9-10-11-10-9-10-11-10-9-10-11-10-9--||
|----------||o---------------------------------------------o||
|----------||-----------------------------------------------||
|-0--------||-----------------------------------------------||
|-0--------||o---------------------------------------------o||
|-0--------||-----------------------------------------------||


                                                  Fast Rock Q=240
|-10-10-10-10-10-10-10-10-10-10-10-10-10-10-10-10-|-10-9-8-7--------------------------------|
|-------------------------------------------------|----------11-10-9-8----------------------|
|-------------------------------------------------|--------------------11-10-9-8------------|
|-------------------------------------------------|------------------------------12-11-10-9-|
|-------------------------------------------------|-----------------------------------------|
|-------------------------------------------------|-----------------------------------------|


|---------------------------------------------|---------------------------------------------|
|---------------------------------------------|---------------------------------------------|
|---------------------------------------------|---------------------------------------------|
|-12-11-10-9-8-9-10-11-12-11-10-9-13-12-11-10-|-12-11-10-9-8-9-10-11-12-11-10-9-13-12-11-10-|
|---------------------------------------------|---------------------------------------------|
|---------------------------------------------|---------------------------------------------|


|---------------------------------------------|-------------------------------------------------|
|---------------------------------------------|-------------------------------------------------|
|---------------------------------------------|-------------------------------------------------|
|-12-11-10-9-8-9-10-11-12-11-10-9-13-12-11-10-|-11-10-9-8-12-11-10-9-13-12-11-10-14-13-12-10----|
|---------------------------------------------|-------------------------------------------------|
|---------------------------------------------|-------------------------------------------------|


|---------------------------------------------|---------------------------------------------|
|---------------------------------------------|---------------------------------------------|
|-12-11-10-9-8-9-10-12-12-11-10-9-13-12-11-10-|-12-11-10-9-8-9-10-11-12-11-10-9-13-12-11-10-|
|---------------------------------------------|---------------------------------------------|
|---------------------------------------------|---------------------------------------------|
|---------------------------------------------|---------------------------------------------|


|----------------------------------------------||
|----------------------------------------------||
|-11-10-9-8-12-11-10-9-13-12-11-10-14-13-12-11-||
|----------------------------------------------||
|----------------------------------------------||
|----------------------------------------------||


 Back To The Solo
  H.=H
                                                                     ~
|------------------------------------------|---------------------------------|
|------------------------------------------|---------------------------------|
|-12-11-10-9-------------------------------|---------------------------------|
|------------12-11-10-9-11-10-9-8-10-9-8-7-|-9-8-7-6-8-7-6-5-7-6-5-4-5-(5)\--|
|------------------------------------------|---------------------------------|
|------------------------------------------|---------------------------------|


                          Beethovens 5t
  Q=100                 Q=160
|----------|------------||------------|
|----------|------------||------------|
|----------|------------||------------|
|-0--------|-(0)--------||------------|
|-0--------|-(0)--------||------5-5-5-|
|-0--------|-(0)--------||------5-5-5-|


 h Symphony
                                          2/4
        ~~~                        ~~~
|-------------|------------|-------------|-----|
|-------------|------------|-------------|-----|
|-------------|------------|-------------|-----|
|-1----(1)----|------------|-0----(0)----|-----|
|-1----(1)----|------3-3-3-|-0----(0)----|-----|
|-1----(1)----|------3-3-3-|-0----(0)----|-----|


 4/4                       9/8
                                         ~~
|-------------------------|--------------------|
|-------------------------|--------------------|
|-12-12-12-13-12-12-12-12-|----20-20-20-17-----|
|-------------------------|-13-----------------|
|-------------------------|--------------------|
|-------------------------|--------------------|


 4/4                       9/8
                                         ~~
|-------------------------|--------------------|
|-------------------------|----18-18-18-15-----|
|-12-12-12-13-12-12-12-12-|--------------------|
|-------------------------|-12-----------------|
|-------------------------|--------------------|
|-------------------------|--------------------|


                                                           H.=H
 4/4                                 11/8                   4/4
            ~~                ~~
|-15-15-13--------|-15-15-13--------|-15-15-13-------------|------||
|----------16-----|----------16-----|----------16----13----|------||
|-----------------|-----------------|----------------------|------||
|-----------------|-----------------|----------------------|-5----||
|-----------------|-----------------|----------------------|-5----||
|-----------------|-----------------|----------------------|-5----||


 Back To The Solo
  Q=100
|---------------------------------------------------------|
|---------------------------------------------------------|
|---------------------------------------------------------|
|-(5)-----------------------------------------------------|
|-(5)-----------------------------10----10-12-10-12-13-12-|
|-(5)----/11-12-14-12-14-15-14-15----15-------------------|


|----------------------------------------------------------------9----9-10-9-10-12-10-12-13--|
|----------------------------------------------10----10-11-10-11---11------------------------|
|----------------------9----9-10-9-10-12-10-12----12-----------------------------------------|
|----11----11-12-11-12---12------------------------------------------------------------------|
|-13----13-----------------------------------------------------------------------------------|
|--------------------------------------------------------------------------------------------|


|----------15h17h18----------17h18h20----------18h20h22p20p18----------------18h20h22p20p18-------|
|-15h17h18----------17h18h20----------18h20h22----------------22p20p18h20h22----------------22p20p|
|-------------------------------------------------------------------------------------------------|
|-------------------------------------------------------------------------------------------------|
|-------------------------------------------------------------------------------------------------|
|-------------------------------------------------------------------------------------------------|


|----20p18p17----------18p17p15----------13p12p10----------12p10p9------------------------------|
|-18----------20p18p17----------18p17p15----------13p11p10---------13-10------------------------|
|------------------------------------------------------------------------13-12-9----------------|
|--------------------------------------------------------------------------------12-10----------|
|--------------------------------------------------------------------------------------13-12-10-|
|-----------------------------------------------------------------------------------------------|


|-------------------------------------------------------------------------------------------------|
|-------------------------------------------------------------------------------------------------|
|-------------------------------------------------------------------------------------------------|
|-------------------------------------------------------------------------------11----------11-12-|
|----------------------------------10----------10-12-10----10-12-13-12-10-12-13----13-12-13-------|
|-15-14-12-11-12-14-15-14-12-14-15----15-14-15----------15----------------------------------------|


|-----------------------------------------------------------------------------------9-10-9-|
|-----------------------------------------------------10----------10-11-10----10-11--------|
|-------------9----------9-10-9----9-10-12-10-9-10-12----12-10-12----------12--------------|
|-11----11-12---12-11-12--------12---------------------------------------------------------|
|----13------------------------------------------------------------------------------------|
|------------------------------------------------------------------------------------------|


             Toccata And Fugue
  H.=H      Q=50
   ~~                ~~                ~~        ~~         ~~
|-10--------|-17-15-17-15--------------------------------------|
|-----------|-------------18-17-15----15-----------------------|
|-----------|----------------------18-----14-12-14-9-10--------|
|-----------|-------------------------------------------11-12--|
|-----------|--------------------------------------------------|
|-----------|--------------------------------------------------|


         ~~                ~~
|-----------------------------------------------------0----|
|----------------------------------------------------------|
|-------------------------------------------------6--------|
|-----------------------------^0----------5---8------------|
|-12-10-12-10-----------------^0--4---7--------------------|
|-------------15-14-12-11-12--^0-(0)-(0)-(0)-(0)-(0)-(0)---|


                     Q=120
            ~
|------------------|---------------------------------------------|
|-^3--(3)----------|---------------------------------------------|
|-^0--(0)----------|---------------------------------------------|
|-^0--(0)-2-4------|-----------------------3-5---3-5---3-5---3-5-|
|----------------4-|-5-7-4-5-7-4-5-7-4-5-7-----7-----7-----7-----|
|------------------|---------------------------------------------|


|--------------------------------|
|--------------------------------|
|----------------------------6---|
|-7-8----7-8----7-8----7---------|
|-----10-----10-----10-----------|
|--------------------------------|


|---------------------------------------------|
|-----------------------6-8---6-8---6-8---6-8-|
|-7-9-6-7-9-6-7-9-6-7-9-----9-----9-----9-----|
|---------------------------------------------|
|---------------------------------------------|
|---------------------------------------------|


|-----------------------------------------|
|-10-11----10-11----10-11----10-----10----|
|-------12-------12-------12--------------|
|-----------------------------------------|
|-----------------------------------------|
|-----------------------------------------|


     T      T      T      T      T      T      T      T
|---------------------------------------------------------|
|-8-11p5h8-11p5h6-10p3h6-10p3h5---------------------------|
|-------------------------------12p5h9-12p5h7-10p3h7-10p3h|
|---------------------------------------------------------|
|---------------------------------------------------------|
|---------------------------------------------------------|


    T     T      T      T      T      T     T     T
|-------------------------------------------------------|
|-------------------------------------------------------|
|-5-9p2h5-9p2h3-----------------------------------------|
|---------------12p5h8-12p5h7-10p3h7-10p7p5-8p2h5-8p2h==|
|-------------------------------------------------------|
|-------------------------------------------------------|


                                Q=40  Q=85
     T      T      T      T
|-----------------------------------|-----6-5-3---0-------------0-3------0--|
|-----------------------------------|-^5--------6---3-2-0-2---2-----5tr6----|
|-----------------------------------|-^3--------------------2---------------|
|-3-----------------------------^0--|---------------------------------------|
|---12p5h8-12p5h7-10p4h7-10p4---^0--|-^4------------------------------------|
|-------------------------------^0--|---------------------------------------|


  Q=40    Q=80
|---------------------------------------------15----------|
|-^6------15----17----18----15----17----18----------17----|
|-^7---14----14----14----14----14----14----14----14----14-|
|-^0------------------------------------------------------|
|-^0------------------------------------------------------|
|-^0------------------------------------------------------|

         Back To The Solo

        Fast Rock Q=110

           ~~
|-------15----17----------15----17----18----15----17----------15----------------------------------|------------------|
|-18----------------18----------------------------------18----------17----18----15----17----14----|-15------(15)\----|
|----14----14----14----14----14----14----14----14----14----14----14----14----14----14----14----14-|------------------|
|-------------------------------------------------------------------------------------------------|------------------|
|-------------------------------------------------------------------------------------------------|------------------|
|-------------------------------------------------------------------------------------------------|------------------|


   T                       T                    T     T                      T
|-17p15p13p12p10h12h13h15h17p15p13p12p10h12h13h15p13h15p13p12p10p9h10h12h13h15p13p12p10p9h10h12h|
|-----------------------------------------------------------------------------------------------|
|-----------------------------------------------------------------------------------------------|
|-----------------------------------------------------------------------------------------------|
|-----------------------------------------------------------------------------------------------|
|-----------------------------------------------------------------------------------------------|


   T                    T                 T  T  T  T            T             T
|-13p12p10p9p8h9h10h12h13p12p10p9p8h9h10h12h13p12h13p12p10p9p8h15p13p12p10p9h17p15p13p12h====|
|--------------------------------------------------------------------------------------------|
|--------------------------------------------------------------------------------------------|
|--------------------------------------------------------------------------------------------|
|--------------------------------------------------------------------------------------------|
|--------------------------------------------------------------------------------------------|


         T                                  T     T     T  T           T  T  T  T
     T
|-13h15h17h18p17p15p13p12p10p9h10h12h13h15h17p15h17p15h17h18p17p15h17h18h20h22p20p18p17p15p13h15p|
|------------------------------------------------------------------------------------------------|
|------------------------------------------------------------------------------------------------|
|------------------------------------------------------------------------------------------------|
|------------------------------------------------------------------------------------------------|
|------------------------------------------------------------------------------------------------|


   T                    T                 T  ~~
|-13p12p10p9p8h9h10h12h13p12p10p9p8h9h10h12p10----|
|-------------------------------------------------|
|-------------------------------------------------|
|-------------------------------------------------|
|-------------------------------------------------|
|-------------------------------------------------|


  H.=H                                                                          S
   T           T           T          T      T          T       T       T
|-17p15p13p12h15p13p12p10h13p12p10p9h12p10p9p8h10p9p8p7h9p8p7p5h8p7p5p3h7p5p3p1-|
|-------------------------------------------------------------------------------|
|-------------------------------------------------------------------------------|
|-------------------------------------------------------------------------------|
|-------------------------------------------------------------------------------|
|-------------------------------------------------------------------------------|


 lower Q=95
                                  ~
|-0------------------------------------|-------------------|
|---6p5---5----------------------------|-------------------|
|-------7---7p5---5--------------------|-------------------|
|---------------7---7p5---5------------|-------------------|
|-----------------------7---7-5-4-5-0--|-(0)------(0)\-----|
|-----------------------------------0--|-(0)------(0)\-----|


|------------------12-10-12-13-12-11-10-------------------------------------------------------10-|
|---------10-13-10----------------------13-12-11-10-------------------------10-------10-11-13----|
|-9-10-13-------------------------------------------13-12-11-10-12-13-12-13----12-13-------------|
|------------------------------------------------------------------------------------------------|
|------------------------------------------------------------------------------------------------|
|------------------------------------------------------------------------------------------------|


                                              H=H
   T          T        T            T            ~~
|-13b14=p10rh13b14rp9--------------13pb14rp10-|-10----|
|---------------------13pb14.5rp10------------|-------|
|---------------------------------------------|-------|
|---------------------------------------------|-------|
|---------------------------------------------|-------|
|---------------------------------------------|-------|


  Moderately Fast Rock Q=135                                              H.=H
        Q
|-20-23-23-23-23-------------23-23-23-23-------------20-23-23-23-23-22-22-22-22-20-20-20-20-20-20-|
|----------------23-22-22-23-------------23-22-22-23----------------------------------------------|
|-------------------------------------------------------------------------------------------------|
|-------------------------------------------------------------------------------------------------|
|-------------------------------------------------------------------------------------------------|
|-------------------------------------------------------------------------------------------------|


 =100
   T        T        T        T
|-20p18p17-18p17p15-17p15p13-15p13p12-13p12p10-12p10p9---------------------------------------------|
|------------------------------------------------------11-10---------------------------------------|
|------------------------------------------------------------12-10-9-------------------------------|
|--------------------------------------------------------------------12-11-------------------------|
|--------------------------------------------------------------------------13-12-10----------------|
|-----------------------------------------------------------------------------------15-14-12-11----|


                                                >
|---------------------------------|----------|--------*|
|---------------------------------|----------|--------*|
|---------------------------------|----------|--------*|
|-10tr12--------------------------|-0--------|-(0)----*|
|---------0-0-0-0-0-0-0-1-1-1-1-0-|-0--------|-(0)----*|
|---------0-0-0-0-0-0-0-1-1-1-1-0-|-0--------|-(0)----*|


Tablature Legend
----------------
 h   - hammer-on
 p   - pull-off
 b   - bend
 pb  - pre-bend
 r   - bend release (if no number after the r, then release immediately)
 /\  - slide into or out of (from/to "nowhere")
 s   - legato slide
 S   - shift slide
  - natural harmonic
[n]  - artificial harmonic
n(n) - tapped harmonic
 ~   - vibrato
 tr  - trill
 T   - tap
 TP  - trem. picking
 PM  - palm muting
\n/  - tremolo bar dip; n = amount to dip
 \n  - tremolo bar down
 n/  - tremolo bar up
/n\  - tremolo bar inverted dip
 =   - hold bend; also acts as connecting device for hammers/pulls
 <>  - volume swell (louder/softer)
 x   - on rhythm slash represents muted slash
 o   - on rhythm slash represents single note slash

Misc Legend
-----------
 |  - bar
||  - double bar
||o - repeat start
o|| - repeat end
*|  - double bar (ending)
 :  - bar (freetime)
 $  - Segno
 &  - Coda
Tempo markers -  = BPM(8/16=s8/s16), where s8 = swing 8ths, s16 = swing 16ths


***************************************************************************************
* Generated using Power Tab Editor by Brad Larsen - http://powertab.guitarnetwork.org *
***************************************************************************************
Tap to rate this tab
 
# A B C D E F G H I J K L M N O P Q R S T U V W X Y Z