Song name
# A B C D E F G H I J K L M N O P Q R S T U V W X Y Z

Misc Unsigned Bands - Unknown Victory - Only Way Out tab


    Intro (Guitar 1)
e|--------------------------|
b|---------11------------11-|
g|------8----8--8-----8-----|
d|-1010--10---10--1010-10---|(X4)
a|--------------------------|
E|--------------------------| 
 
    Intro (Guitar 2)
e|---------------------------|
b|---------------------------|
g|---------------------------|
d|---------------------------|
a|-----------------------1-1-|
E|---------------------------|
  PM                     . .  


   Verse 1 (guitar 1)
|--------------------|
|--------------------|
|--------------------|
|-----8~-8-888-99-88-|X6
|-8-8-6--6-666-77-88-|
|-6-6----------------| 

  Verse 1 (Guitar 2)
|----------------|
|---8----8-7---8-|
|-88---88-8-7/8--|
|----------------|X6
|----------------|
|----------------|  


 Chourus (Guitar 1 & 2)
|---------------------|
|---------------------|
|-----------888-------|
|-9999/8888-666-------|X4
|-7777/6666-----7-777-|
|---------------5-555-| 


 Solo (guitar 2)
|--6-6-88-5-55-88-5-55-88-5-55-444---|
|--6-6-88-5-55-88-5-55-88-5-55-444/4-|
|----------------------------------4-| X2
|------------------------------------|
|------------------------------------|
|------------------------------------| 

|------------------5-3-----------------|
|-3-232-3232-3232-----4-2-1------------|
|------2----2----2---------1-----------|X1
|--------------------------------------|
|-----------------------------99998888-|
|-----------------------------99998888-|


ORDER: 
Intro x4 
Verse X6
chourus X4 

verse  x6
chourus x4  

verse x6
solo x1
chourus x4

Tap to rate this tab
# A B C D E F G H I J K L M N O P Q R S T U V W X Y Z