Song name
# A B C D E F G H I J K L M N O P Q R S T U V W X Y Z

Misc Unsigned Bands - Straterra - Army Of Darkness tab

Band:Straterra
Album:bodog battle of the bands@meridian red room
style:MetaL
tuning:drop D flat
tabed by:Devil_Driver

straterra is so badass
i found this recording of the band playing
at the meridian 
so i tabed it



intro
gtr 1
e---------------------------|------------------------|-----------------|
b---------------------------|------------------------|-----------------|
g-2/7--7h9-10--10/12-10-9-10|-4/7--7h9--10/15-14-12--|-9-10-12B-10-9-10|
d---------------------------|------------------------|-----------------|
a---------------------------|------------------------|-----------------|
D---------------------------|------------------------|-----------------|
   lots of REVERB during lead
gtr 2
e---------------------------|------------------------|-----------------|
b---------------------------|------------------------|-----------------|
g---------------------------|------------------------|-----------------|
d---0-----------------------|-0----------------------|-8---------------|
a---0-----------------------|-0----------------------|-8---------------|
D---0-----------------------|-0----------------------|-8---------------|
    hold note              hold note                  hold note

gtr 1
e------------------------------|-----------------|-----------------------|
b------------------------------|-----------------|-----------------------|
g------9-10-9h10p9-------------|-----------------|-----------------------|
d---10-------------10----------|-----12-14151415-|-----12-14151415/17/19-|
a-12------------------10-10/12-|---12------------|---12------------------|
D------------------------------|-12--------------|-12--------------------|
pm.  .                         pm . . .          pm . . .
gtr 2
e------------------------------|-----------------|-----------------------|
b------------------------------|-----------------|-----------------------|
g------------------------------|-----------------|-----------------------|
d-7----------------------------|-0---------------|-0---------------------|
a-7----------------------------|-0---------------|-0---------------------|
D-7----------------------------|-0---------------|-0---------------------|
 hold notes                    hold notes        hold notes

gtr 1
e--------------------|--------------------------|
b--------------------|--------------------------|
g-----15-17-19-17-19-|-----14-1617-17/19-171617-|
d---15---------------|---14---------------------|
a-15-----------------|-14-----------------------|
D--------------------|--------------------------|

gtr 1
e--------------------|--------------------------|
b--------------------|--------------------------|
g--------------------|--------------------------|
d-8------------------|-7------------------------|
a-8------------------|-7------------------------|
D-8------------------|-7------------------------|
hold notes           hold notes

verse
gtr 1-2  
e---------------------|--------------------------------|-------------------|
b---------------------|--------------------------------|-------------------|
g---------------------|-----------------9-10-9h10p9----|-------------------|
d----0------3-2-3/2-0-|-8-88-8-8888---10-----------10--|-7-77777-1087--787-|
a----0----------------|-8-88-8-8888-12--------------10-|-7-77777-----10---8|
D-12/0-00000-0-0---0--|-8-88-8-8888--------------------|-7-77777-----------|

 pm  . ..... . .   .    . .. . ....                . .   . ..... ..........


choras
e------------------------------|
b------------------------------|
g------------------------------|
d-0----8-----7-----0-----------|
a-0----8-----7-----0-----------|
D-0----8-----7-----0-----------|
  4  4s


solo
e------------------------------|
b------------------------------|
g------------------------------|
d-----12-151415----12 1512-----|
a---12-----------12------------|
D-12-----------12--------------|
the solo was a blur and random sounding



bridge
e------------------------------|
b------------------------------|
g------------------------------|
d-0----8-----7-----0-----------|
a-0----8-----7-----0-----------|
D-0----8-----7-----0-----------|
   speed picking double time

them back it to choras
                  
Tap to rate this tab
# A B C D E F G H I J K L M N O P Q R S T U V W X Y Z