Song name
# A B C D E F G H I J K L M N O P Q R S T U V W X Y Z

Misc Unsigned Bands - First Murdehh After Midnight - Thinking About You Part 1 tab

                              THINKING ABOUT YOU...
                   As recorded by First Murdehh After Midnight
               (From the 2007 Album FMAM WANT YOU IN THIER PANTS)

Words and Music by Carl Russell (Lead Guitar With FMAM)
Arranged by Carl Russell (Lead Guitar With FMAM)
Transcribed by Carl Russell (Lead Guitar With FMAM)

          Gm                   D5                    F                   D#5
      3 5 5 3 3 3          x 5 7 7 x x          1 0 3 2 1 1          x 6 8 8 x x

          Cm               Cm(type 2)
      x x 0 2 3 1          x x 0 2 3 1

 Intro
  Slow Rock Q=70
  Dm                Esus2             Bb                    Cm7/Ab
 4/4
  Gtr I
|---5-----5-------|-1-0-1-------1---|---------1-----1-----|--------------||
|-6---------6-----|-1-----1-----1---|-------3-------------|---------2----||
|-----7-----------|---------0-------|-----3-------3---3---|-----4---4----||
|-------7-------7-|-3---------3-----|---3-------3-------3-|---2---2-2----||
|-5-----------5---|-------------3-2-|-1-------------1-----|-0-------0----||
|-----------------|-----------------|---------------------|--------------||


   1st Verse
    Dm                      Esus2
    Gtr I
||----5-----5-------------|-1-0-1-------1---|
||o-6---------6-----------|-1-----1-----1---|
||------7-----------------|---------0-------|
||--------7-----------7---|-3---------3-----|
||o-5-------------5-------|-------------3-2-|
||------------------------|-----------------|
|
|   Gtr II
||------------------------|-----------------|
||o-----------------------|-----------------|
||------------------------|-5---5---5---5---|
||--0---0-----------------|-5---5---5---5---|
||o-0---0-----0-0-0-0-0-0-|-3---3---3---3---|
||--0---0-----0-0-0-0-0-0-|-----------------|


  Bb                    Cm7/Ab
|---------1-----1-----|------------------------||
|-------3-------------|---------2-------------o||
|-----3-------3---3---|-----4---4--------------||
|---3-------3-------3-|---2---2-2--------------||
|-1-------------1-----|-0-------0-------------o||
|---------------------|------------------------||
|
|---------------------|------------------------||
|---------------------|-----------------------o||
|-3-------------------|------------------------||
|-3-------------------|-2-2-2-2-2-2-/2-2-2-2---||
|-1-------------------|-0-0-0-0-0-0-/4-4-4-4--o||
|---------------------|------------------------||


   Chorus
    Gm                                  D5
    Gtr I
     |           |                 |  |  |  |  |  |
     /           /                 /  /  /  /  /  /

    Gtr II
||--------------------------------------------------|
||o-------------------------------------------------|
||--15-15-15-15-15-15-15-15-15-15-15-15-14-14-14-14-|
||--------------------------------------------------|
||o-13-13-13-13-13-13-13-13-13-13-13-13-12-12-12-12-|
||--------------------------------------------------|
|
|   Gtr III
||--------------------------------------------------|
||o-------------------------------------------------|
||--------------------------------------------------|
||--------------------------------------------------|
||o--5-----5-----5--5--5--5--5-----5-----0--0--0--0-|
||---5-----5-----5--5--5--5--5-----5-----0--0--0--0-|
|
|   Gtr IV
||--18----------18----------18----------18----18----|
||o----15-15-15----15-15-15----15-15-15----15----15-|
||--------------------------------------------------|
||--------------------------------------------------|
||o-------------------------------------------------|
||--------------------------------------------------|


                                                   1.                  2.
  F                                   D#5           Dm      D5          Cm     D5    Cm
   |           |                 |  |  |  |  |  |    |       | | | |     |     ||||   |
   /           /                 /  /  /  /  /  /    /       / / / /     /     ////   /

|-------------------------------------------------|------------------||------------|--------------||
|-------------------------------------------------|-----------------o||------------|--------------||
|-14-14-14-14-14-14-14-14-14-14-14-14-12-12-12-12-|--9--10--12--14---||-12---------|-10------9----||
|-------------------------------------------------|------------------||------------|--------------||
|-12-12-12-12-12-12-12-12-12-12-12-12-10-10-10-10-|--7---8--10--12--o||-10---------|--8------7----||
|-------------------------------------------------|------------------||------------|--------------||
|
|-------------------------------------------------|------------------||------------|--------------||
|-------------------------------------------------|-----------------o||------------|--------------||
|-------------------------------------------------|------------------||------------|--------------||
|-------------------------------------------------|--0---------------||-(0)--------|-(0)----------||
|--3-----3-----3--3--3--3--3-----3-----1--1--1--1-|--0--------------o||-(0)--------|-(0)----------||
|--3-----3-----3--3--3--3--3-----3-----1--1--1--1-|--0---------------||-(0)--------|-(0)----------||
|
|                                                    ~~~~~~~~~~~~~~~~~~~~~~~~~~~~~~~~~~~~~~~~~~
|-17----------17----------17----------13----------|------------------||------------|--------------||
|----13-13-13----13-13-13----13-13-13----10-10-10-|-15------13------o||-13---------|--------------||
|-------------------------------------------------|------------------||------------|-14-----12----||
|-------------------------------------------------|------------------||------------|--------------||
|-------------------------------------------------|-----------------o||------------|--------------||
|-------------------------------------------------|------------------||------------|--------------||


 Guitar Solo
  Gtrs IV, VI
                                      ~~~~~
|---------/13-12-------12----------|-13b15-------13-10------------------------------------------------|
|----------------13-11----13-------|-------------------13-10-------10-13-10---------------------------|
|----------------------------14p12-|-------------------------13-10----------12---10-------------------|
|----------------------------------|------------------------------------------------12-10----12-(12)\-|
|----------------------------------|------------------------------------------------------12----------|
|----------------------------------|------------------------------------------------------------------|
|
| Gtr II
|----------------------------------|------------------------------------------------------------------|
|----------------------------------|------------------------------------------------------------------|
|----------------------------------|------------------------------------------------------------------|
|-5-5-5-5---5-----5-----5-----5----|--1----1-1-1--1-----------1----------------1--------------1-------|
|-5-5-5-5---5-----5-----5-----5----|--1----1-1-1--1-----------1----------------1--------------1-------|
|-5-5-5-5---5-----5-----5-----5----|--1----1-1-1--1-----------1----------------1--------------1-------|


                                      ~~~
|-17b18---17-------------15b17==15---13r---|
|------------18-------18-------------------|
|---------------17-17----------------------|
|------------------------------------------|
|------------------------------------------|
|------------------------------------------|
|
|------------------------------------------|
|------------------------------------------|
|------------------------------------------|
|--3----3--3--------------3------3-3--3--3-|
|--3----3--3--------------3------3-3--3--3-|
|--3----3--3--------------3------3-3--3--3-|


                 \2
            ~~~~                                                             ~~
|-13b15---(13)------------------------------------------------10----10-12-|-13---13-12-10----------------------------|
|----------------------------------10----10-11-10-11-13-11-13----13-------|---------------13-11-10----------10-12h13-|
|-------------------10-12-13-12-13----13----------------------------------|------------------------13-12-10----------|
|-------------------------------------------------------------------------|------------------------------------------|
|-------------------------------------------------------------------------|------------------------------------------|
|----------------0--------------------------------------------------------|------------------------------------------|
|
|-------------------------------------------------------------------------|------------------------------------------|
|-------------------------------------------------------------------------|------------------------------------------|
|-------------------------------------------------------------------------|------------------------------------------|
|--0----0---0--0-0---0-----------------0-----------------0----------------|--5-5--5-----5-----5-----5-----5-----5----|
|--0----0---0--0-0---0-----------------0-----------------0----------------|--5-5--5-----5-----5-----5-----5-----5----|
|--0----0---0--0-0---0-----------------0-----------------0----------------|--5-5--5-----5-----5-----5-----5-----5----|


|-10----------10----------10----------10----------10----------10----------10----------10----------|
|----13p10-------13p10-------13p10-------13p10-13----13p10-------13p10-------13p10-------13p10-13-|
|----------12----------13----------12----------------------12----------13----------12-------------|
|-------------------------------------------------------------------------------------------------|
|-------------------------------------------------------------------------------------------------|
|-------------------------------------------------------------------------------------------------|
|
|-------------------------------------------------------------------------------------------------|
|-------------------------------------------------------------------------------------------------|
|-------------------------------------------------------------------------------------------------|
|--1-----------1-----------1-----------1-----------1-----------1-----------1-----------1----------|
|--1-----------1-----------1-----------1-----------1-----------1-----------1-----------1----------|
|--1-----------1-----------1-----------1-----------1-----------1-----------1-----------1----------|


                                    H=H
  Gtr IV
   ~~                         ~~
|-13-------13-10--------------------|-------------------|
|----------------13-10--------------|-------------------|
|----------------------13-10-13-----|-12\---------------|
|-----------------------------------|-------------------|
|-----------------------------------|-------------------|
|-----------------------------------|-------------------|
|
| Gtr V
|-----------------------------------|-------------------|
|-----------------------------------|-------------------|
|-----------------------------------|-------------------|
|-----------------------------------|-------------------|
|-----------------------------------|-------------------|
|-----------------------------------|-------------------|
|
| Gtr II
|-----------------------------------|-------------------|
|-----------------------------------|-------------------|
|-----------------------------------|-------------------|
|--3-3-3-3--3-----------------3-3-3-|-------------------|
|--3-3-3-3--3-----------------3-3-3-|--0--0-0-0-0-0-0-0-|
|--3-3-3-3--3-----------------3-3-3-|--0--0-0-0-0-0-0-0-|


                    Dual Solo
                  Faster Q=143
                  Gtr IV
|-----------------||--------------------|-------10-12-13-10-12-13--|
|-----------------||--------------------|--------------------------|
|-----------------||--------------------|--------------------------|
|-----------------||--------------------|--------------------------|
|-----------------||--------------------|--------------------------|
|-----------------||--------------------|--------------------------|
|
|                 Gtr V
|-----------------||--------------------|-------13-15-17-13-15-17--|
|-----------------||--------------------|--------------------------|
|-----------------||--------------------|--------------------------|
|-----------------||--------------------|--------------------------|
|-----------------||--------------------|--------------------------|
|-----------------||--------------------|--------------------------|
|
|                    PM--|      PM|        PM PM---------------|
|-----------------||--------------------|--------------------------|
|-----------------||--------------------|--------------------------|
|-----------------||--------------------|--------------------------|
|-----------------||--------------------|--------------------------|
|-0-0-0-0-0-0-0-0-||-2-2-0-0s3--2-0-0s3-|--2--2--0--2--3--0--2--3--|
|-0-0-0-0-0-0-0-0-||-2-2-0-0s3--2-0-0s3-|--2--2--0--2--3--0--2--3--|


   ~~~~~~~~~~~~~~~~~~~~~~~~~~~~~~~~~~~~~~
|-10---13---12-----10---12---13-----|-10-------9h10p===9-----------------------------|
|-----------------------------------|--------------------12-10--8--------------------|
|-----------------------------------|------------------------------9--8----7---------|
|-----------------------------------|-----------------------------------------8--7-5-|
|-----------------------------------|------------------------------------------------|
|-----------------------------------|------------------------------------------------|
|
|                                      ~~
|-13---17---15-----13---15---17-----|-13------12h13p==12-----------------------------|
|-----------------------------------|--------------------15-13-11--------------------|
|-----------------------------------|-----------------------------12-11---10---------|
|-----------------------------------|----------------------------------------12-11-8-|
|-----------------------------------|------------------------------------------------|
|-----------------------------------|------------------------------------------------|
|
|  PM-----|           PM---|             PM PM----------------------------------------
|-----------------------------------|------------------------------------------------|
|-----------------------------------|------------------------------------------------|
|-----------------------------------|------------------------------------------------|
|-----------------------------------|------------------------------------------------|
|--2-2----0----0s3----2----0----0s3-|----2--2--0----2-----3--------0----2-----3------|
|--2-2----0----0s3----2----0----0s3-|----2--2--0----2-----3--------0----2-----3------|


   ~~                    ~~               ~~~~~~~~~
|---------------------|----------------------------------|
|---------------------|------------------13-----11-------|
|---------------------|-14------14-13h14-----------------|
|--7------------------|------12--------------------------|
|---------------------|----------------------------------|
|---------------------|----------------------------------|
|
|  ~~                    ~~               ~~~~~~~~~
|---------------------|----------------------------------|
|---------------------|------------------17-----14-------|
|---------------------|-17------17-16h17-----------------|
|-11------------------|------15--------------------------|
|---------------------|----------------------------------|
|---------------------|----------------------------------|
|
|------|      PM|          PM       PM---------------|
|---------------------|----------------------------------|
|---------------------|----------------------------------|
|---------------------|----------------------------------|
|---------------------|----------------------------------|
|--2-2-0-0s3--2-0-0s3-|----2--------2-----0-2-3--0-2-3---|
|--2-2-0-0s3--2-0-0s3-|----2--------2-----0-2-3--0-2-3---|


                                                                     H
                                       ~~~~~~~~~~~~~
|-12-10-13-12-10-12-13-12-10-12-10-12-10-----|-(10)------------------|
|--------------------------------------------|-----------------------|
|--------------------------------------------|-----------------------|
|--------------------------------------------|-----------------------|
|--------------------------------------------|-----------------------|
|--------------------------------------------|-----------------------|
|
|                                      ~~~~~~~~~~~~~
|-15-13-17-15-13-15-17-15-13-15-13-15-13-----|-(13)------------------|
|--------------------------------------------|-----------------------|
|--------------------------------------------|-----------------------|
|--------------------------------------------|-----------------------|
|--------------------------------------------|-----------------------|
|--------------------------------------------|-----------------------|
|
|  PM---------|                  PM---|             PM PM----------|
|--------------------------------------------|-----------------------|
|--------------------------------------------|-----------------------|
|--------------------------------------------|-----------------------|
|--------------------------------------------|-----------------------|
|--2-----2-----0-----0s=3--------2-----0-0s3-|------2--2-0-2-3-0-2-3-|
|--2-----2-----0-----0s=3--------2-----0-0s3-|------2--2-0-2-3-0-2-3-|


 .=H                                                                     Slow Rock Q=70
   \2.25           \1/  \1/  \1/  \1/  \1/  \1/  \1/                 \2
                                                            ~~~             ~~~
|---------------|----------------------------------------|---------------|--------||
|-<5>-----------|-(5)--(5)--(5)--(5)--(5)--(5)--(5)------|---------------|--------||
|-<5>-----------|-(5)--(5)--(5)--(5)--(5)--(5)--(5)--<3>-|-<3>------(3)--|-<3>----||
|-<5>-----------|-(5)--(5)--(5)--(5)--(5)--(5)--(5)------|---------------|--------||
|---------------|----------------------------------------|---------------|--------||
|---------------|----------------------------------------|---------------|--------||
|
|                  \4
|---------------|----------------------------------------|---------------|--------||
|---------------|----------------------------------------|---------------|--------||
|---------------|----------------------------------------|---------------|--------||
|---------------|--0-------------------------------------|-(0)-----------|-(0)----||
|---------------|--0-------------------------------------|-(0)-----------|-(0)----||
|---------------|--0-------------------------------------|-(0)-----------|-(0)----||
|
|---------------|----------------------------------------|---------------|--------||
|---------------|----------------------------------------|---------------|--------||
|---------------|----------------------------------------|---------------|--------||
|--0------------|-(0)------------------------------------|-(0)-----------|-(0)----||
|--0------------|-(0)------------------------------------|-(0)-----------|-(0)----||
|--0------------|-(0)------------------------------------|-(0)-----------|-(0)----||


 Bridge
  Dm                  C                   Bb
  Gtr I
|--5----------------|-----3---0---------|---------0-1-----------|
|-------6-----------|--1----------1-----|-------3---------3-----|
|-----7-----7-------|-------0-----------|-----3-------------3---|
|---------7---7-----|-----------2-------|--3----------3-------3-|
|--5------------5p3-|---------------3-0-|---------------1-------|
|-------------------|-------------------|-----------------------|
|
| Gtr II
|                      >
|-------------------|-------------------|-----------------------|
|-------------------|-------------------|-----------------------|
|-------------------|-------------------|-----------------------|
|-(0)---------------|-(0)---------------|-(0)-------------------|
|-(0)---------------|-(0)---------------|-(0)-------------------|
|-(0)---------------|-(0)---------------|-(0)-------------------|
|
| Gtr IV
|  <                   <                   <
|-------------------|-------------------|-----------------------|
|-------------------|-------------------|-----------------------|
|--7----------------|--5----------------|--3--------------------|
|--8----------------|--7----------------|--5--------------------|
|-------------------|-------------------|-----------------------|
|-------------------|-------------------|-----------------------|


  C#m6/A
|--------------|-----0-------------------||
|-----2---2----|--2------2---------------||
|---------3----|-------3-----3-----------||
|---2---2-2----|-----------2-----2-------||
|-0-------0----|---------------0---4p0---||
|--------------|-------------------------||
|
|--------------|-------------------------||
|--------------|-------------------------||
|--------------|-------------------------||
|--------------|-------------------------||
|--------------|-------------------------||
|--------------|-------------------------||
|
| <
|                 ~~~
|--------------|-------------------------||
|--------------|-------------------------||
|-2------------|-(2)---------------------||
|-3------------|-(3)---------------------||
|--------------|-------------------------||
|--------------|-------------------------||


   Outro Verse
    Dm                      Esus2
    Gtr I
||--5---------------------|-----3-------0-------------|
||o-----6-----------------|-1---------------1---------|
||----7-----7-------------|-----------0---------------|
||--------7---7-----------|---------------2-----------|
||o-5-------------5p==3---|-----------------------3-0-|
||------------------------|---------------------------|
|
|   Gtr II
||------------------------|---------------------------|
||o-----------------------|---------------------------|
||------------------------|-----5-(5)---------(5)-----|
||--0---0-----------------|---5-----------------------|
||o-0---0-----0-0-0-0-0-0-|-3---------------------3-0-|
||--0---0-----0-0-0-0-0-0-|---------------------------|


  Bb                        C#m6/A
|--------0--1-------------|-----------0-------------------||
|-----3-----------3-------|-----2---2-----2--------------o||
|---3---------------3-----|-------------3------3----------||
|-3-----------3-------3---|---2---2----------2-----2------||
|---------------1---------|-0--------------------0---4p0-o||
|-------------------------|-------------------------------||
|
|-------------------------|-------------------------------||
|-------------------------|------------------------------o||
|-----3-(3)---------------|-------------------------------||
|---3---------------------|-2-2-2-2-2---2---/2-2-2---2----||
|-1---------------------1-|-0-0-0-0-0---0---/4-4-4---4---o||
|-------------------------|-------------------------------||


  Dm
|-^1--------|-(1)--------|-(1)--------|
|-^3--------|-(3)--------|-(3)--------|
|-^2--------|-(2)--------|-(2)--------|
|-^0--------|-(0)--------|-(0)--------|
|-----------|------------|------------|
|-----------|------------|------------|
|
|-----------|------------|------------|
|-----------|------------|------------|
|-----------|------------|------------|
|--0--------|-(0)--------|-(0)--------|
|--0--------|-(0)--------|-(0)--------|
|--0--------|-(0)--------|-(0)--------|


|--1----------1-----|------------|--------*|
|-------3-------3---|------------|--------*|
|-----2---2---------|------------|--------*|
|-------------------|--0---------|-(0)----*|
|-----------0-------|------------|--------*|
|-------------------|------------|--------*|
|
|  >
|-------------------|------------|--------*|
|-------------------|------------|--------*|
|-------------------|------------|--------*|
|-(0)---------------|-(0)--------|-(0)----*|
|-(0)---------------|-(0)--------|-(0)----*|
|-(0)---------------|-(0)--------|-(0)----*|

(Intro)

I'm thinking about suicide,
Playing Russian roulette in my mind,
Thinking of the days that you were mine,

(1st Verse)

Wishing I was by your side,
I hope you felt the love I gave,
I love you that's all I've got to say,
Don't follow me you should stay,
I have gone to a better place,
Where I will see you again one day,

(Chorus)

I am really, really sorry,
I will look after you from above,
Everyday from now on my love,
Now you know I'm gonna go,

(Guitar Solo)
(Dual Solo)

(Bridge)

You are reading this note I need you to know,
I will love you till the day I die,
Which is today, Sorry, Goodbye___,

(Outro Verse)

I'm sitting here alone
Thinking about you
I'm sitting here alone
I need you to know I love you___.


Tablature Legend
----------------
 h   - hammer-on
 p   - pull-off
 b   - bend
 pb  - pre-bend
 r   - bend release (if no number after the r, then release immediately)
 /\  - slide into or out of (from/to "nowhere")
 s   - legato slide
 S   - shift slide
  - natural harmonic
[n]  - artificial harmonic
n(n) - tapped harmonic
 ~   - vibrato
 tr  - trill
 T   - tap
 TP  - trem. picking
 PM  - palm muting
\n/  - tremolo bar dip; n = amount to dip
 \n  - tremolo bar down
 n/  - tremolo bar up
/n\  - tremolo bar inverted dip
 =   - hold bend; also acts as connecting device for hammers/pulls
 <>  - volume swell (louder/softer)
 x   - on rhythm slash represents muted slash
 o   - on rhythm slash represents single note slash

Misc Legend
-----------
 |  - bar
||  - double bar
||o - repeat start
o|| - repeat end
*|  - double bar (ending)
 :  - bar (freetime)
 $  - Segno
 &  - Coda
Tempo markers -  = BPM(8/16=s8/s16), where s8 = swing 8ths, s16 = swing 16ths


***************************************************************************************
* Generated using Power Tab Editor by Brad Larsen - http://powertab.guitarnetwork.org *
***************************************************************************************
Tap to rate this tab
# A B C D E F G H I J K L M N O P Q R S T U V W X Y Z