Guitaretab - guitar tabs
Song name
# A B C D E F G H I J K L M N O P Q R S T U V W X Y Z

Misc Unsigned Bands - First Murdehh After Midnight - Sell Your Soul To The Highest Bidder tab

   Intro
    Moderate Rock Q=125
    N.C.
   4/4
    Gtr I
       PM|             PM|          PM|
||----------------|---------------|----------------|
||o---------------|---------------|----------------|
||--------------3-|--------2------|--------------3-|
||--2------5-2--3-|-2------2------|---------5-2--3-|
||o-2--2-4-5-2--1-|-2--2-4---5-4--|-----2-4-5-2--1-|
||--0-------------|-0--------3-2--|-0-0------------|
|
|   Gtr II
|      PM|             PM|          PM|
||----------------|---------------|----------------|
||o---------------|---------------|----------------|
||--------------3-|--------2------|--------------3-|
||--2------5-2--3-|-2------2------|---------5-2--3-|
||o-2--2-4-5-2--1-|-2--2-4---5-4--|-----2-4-5-2--1-|
||--0-------------|-0--------3-2--|-0-0------------|


 1.                 2.
                                             E5
|-----------------||------------------------------||
|----------------o||------------------------------||
|-----------------||-5-4-2------------------------||
|-2---------------||-------5-3-2-------------2----||
|-2--2-4-3-----2-o||-------------5-3-2-------2----||
|-0--------2-1----||-------------------5-3-2-0----||
|
|-----------------||------------------------------||
|----------------o||-4-3-1------------------------||
|-----------------||-------3-2-0------------------||
|-2---------------||-------------3-2-0-------2----||
|-2--2-4-3-----2-o||-------------------3-2-0-2----||
|-0--------2-1----||-------------------------0----||


   Verse
    N.C.
    Gtr I
||---------------------------------|---------------------------------|
||o--------------------------------|---------------------------------|
||---------------------------------|---------------------------------|
||---------------------------------|---------------------------------|
||o--------------------------------|---------------------------------|
||--3h4-0-0-0-0-0-0-0-0-0-0-3b5----|-3h4-0-0-0-0-0-0-5h6-0-0-6p5-0-0-|
|
|   Gtr II
||---------------------------------|---------------------------------|
||o--------------------------------|---------------------------------|
||---------------------------------|---------------------------------|
||---------------------------------|---------------------------------|
||o-5h6---------------------2b4----|-5h6-------------7h8-----8p7-----|
||------0-0-0-0-0-0-0-0-0-0--------|-----0-0-0-0-0-0-----0-0-----0-0-|


                                                                        3x
|---------------------------------|-------------------------------------||
|---------------------------------|------------------------------------o||
|---------------------------------|-------------------------------------||
|---------------------------------|-------------------------------------||
|---------------------------------|------------------------------------o||
|-3h4-0-0-0-0-0-0-0-0-0-0-0-0-0-0-|-5-5-5-2-2-2-1-1-1-0-0-0-4-4-4-4-----||
|
|                                                                       3x
|---------------------------------|-------------------------------------||
|---------------------------------|------------------------------------o||
|---------------------------------|-------------------------------------||
|---------------------------------|-------------------------------------||
|-5h6-----------------------------|-7-7-7-4-4-4-3-3-3-2-2-2-6-6-6-6----o||
|-----0-0-0-0-0-0-0-0-0-0-0-0-0-0-|-------------------------------------||


   Chorus
    F#m
   2/2
||-------------------2------(2)---------------|
||o--------------------------2--------(2)-----|
||-------------------------------------2------|
||--4---------------(4)-----(4)-------(4)-----|
||o-4---------------(4)-----(4)-------(4)-----|
||--2---------------(2)-----(2)-------(2)-----|
|
||--------------------------------------------|
||o-------------------------------------------|
||--------------------------------------------|
||--------------------------------------------|
||o-------------------------------------------|
||--2-2-2-2-2-2-2-2--2--2-2-----2-2-2-----2-2-|


  A                                           F#sus4
|------------------5------(5)-------(5)-----|------------------2------(2)-------(2)------|
|--------------------------5--------(5)-----|--------------------------2--------(2)------|
|------------------------------------6------|------------------------------------4-------|
|-7---------------(7)-----(7)-------(7)-----|-4---------------(4)-----(4)-------(4)------|
|-7---------------(7)-----(7)-------(7)-----|-2---------------(2)-----(2)-------(2)------|
|-5---------------(5)-----(5)-------(5)-----|-2---------------(2)-----(2)-------(2)------|
|
|-------------------------------------------|--------------------------------------------|
|-------------------------------------------|--------------------------------------------|
|-------------------------------------------|--------------------------------------------|
|-------------------------------------------|--------------------------------------------|
|-------------------------------------------|-2-2-2-2-2-2-2-2--2--2-2-----2-2-2-----2-2--|
|-5-5-5-5-5-5-5-5--5--5-5-----5-5-5-----5-5-|--------------------------------------------|


                                   1.
  B5/F#                                             B5  E5  A5  G5
|---------------------------------|----------------------------------||
|---------------------------------|---------------------------------o||
|---------------------------------|-----------------4----------------||
|-4---4---x---x---4---4---x---x---|-4---4---x---x---4-------7---5----||
|-2---2---x---x---2---2---x---x---|-2---2---x---x---2---2---7---5---o||
|-2---2---x---x---2---2---x---x---|-2---2---x---x-------0---5---3----||
|
|---------------------------------|----------------------------------||
|---------------------------------|---------------------------------o||
|---------------------------------|----------------------------------||
|---------------------------------|-----------------4-4--------------||
|-2-2-2-2-2-2-2-2-2-2-2-2-2-2-2-2-|-2-2-2-2-2-2-2-2-2-2-2-2-7-7-5-5-o||
|---------------------------------|---------------------0-0-5-5-3-3--||


 2.
  N.C.                                              E5
 4/4
|-------------------------------------------------|------||
|-------------------------------------------------|------||
|-5-4-2-------5-4-2-------------------------------|------||
|-------5-3-2-------5-3-2-------5-3-2-------------|-2----||
|-------------------------5-3-2-------5-3-2-------|-2----||
|-------------------------------------------5-3-2-|-0----||
|
|-------------------------------------------------|------||
|-4-3-1-------4-3-1-------------------------------|------||
|-------3-2-0-------3-2-0-------3-2-0-------------|------||
|-------------------------3-2-0-------3-2-0-------|-2----||
|-------------------------------------------3-2-0-|-2----||
|-------------------------------------------------|-0----||


   Verse
    N.C.
||---------------------------------|---------------------------------|
||o--------------------------------|---------------------------------|
||---------------------------------|---------------------------------|
||---------------------------------|---------------------------------|
||o--------------------------------|---------------------------------|
||--3h4-0-0-0-0-0-0-0-0-0-0-3b5----|-3h4-0-0-0-0-0-0-5h6-0-0-6p5-0-0-|
|
||---------------------------------|---------------------------------|
||o--------------------------------|---------------------------------|
||---------------------------------|---------------------------------|
||---------------------------------|---------------------------------|
||o-5h6---------------------2b4----|-5h6-------------7h8-----8p7-----|
||------0-0-0-0-0-0-0-0-0-0--------|-----0-0-0-0-0-0-----0-0-----0-0-|


                                                                        3x
|---------------------------------|-------------------------------------||
|---------------------------------|------------------------------------o||
|---------------------------------|-------------------------------------||
|---------------------------------|-------------------------------------||
|---------------------------------|------------------------------------o||
|-3h4-0-0-0-0-0-0-0-0-0-0-0-0-0-0-|-5-5-5-2-2-2-1-1-1-0-0-0-4-4-4-4-----||
|
|                                                                       3x
|---------------------------------|-------------------------------------||
|---------------------------------|------------------------------------o||
|---------------------------------|-------------------------------------||
|---------------------------------|-------------------------------------||
|-5h6-----------------------------|-7-7-7-4-4-4-3-3-3-2-2-2-6-6-6-6----o||
|-----0-0-0-0-0-0-0-0-0-0-0-0-0-0-|-------------------------------------||


   Chorus
    F#m
   2/2
||-------------------2------(2)---------------|
||o--------------------------2--------(2)-----|
||-------------------------------------2------|
||--4---------------(4)-----(4)-------(4)-----|
||o-4---------------(4)-----(4)-------(4)-----|
||--2---------------(2)-----(2)-------(2)-----|
|
||--------------------------------------------|
||o-------------------------------------------|
||--------------------------------------------|
||--------------------------------------------|
||o-------------------------------------------|
||--2-2-2-2-2-2-2-2--2--2-2-----2-2-2-----2-2-|


  A                                           F#sus4
|------------------5------(5)-------(5)-----|------------------2------(2)-------(2)------|
|--------------------------5--------(5)-----|--------------------------2--------(2)------|
|------------------------------------6------|------------------------------------4-------|
|-7---------------(7)-----(7)-------(7)-----|-4---------------(4)-----(4)-------(4)------|
|-7---------------(7)-----(7)-------(7)-----|-2---------------(2)-----(2)-------(2)------|
|-5---------------(5)-----(5)-------(5)-----|-2---------------(2)-----(2)-------(2)------|
|
|-------------------------------------------|--------------------------------------------|
|-------------------------------------------|--------------------------------------------|
|-------------------------------------------|--------------------------------------------|
|-------------------------------------------|--------------------------------------------|
|-------------------------------------------|-2-2-2-2-2-2-2-2--2--2-2-----2-2-2-----2-2--|
|-5-5-5-5-5-5-5-5--5--5-5-----5-5-5-----5-5-|--------------------------------------------|


                                   1.
                                                    B5  E5  A5  G5
|---------------------------------|----------------------------------||
|---------------------------------|---------------------------------o||
|---------------------------------|-----------------4----------------||
|-4---4---x---x---4---4---x---x---|-4---4---x---x---4-------7---5----||
|-2---2---x---x---2---2---x---x---|-2---2---x---x---2---2---7---5---o||
|-2---2---x---x---2---2---x---x---|-2---2---x---x-------0---5---3----||
|
|---------------------------------|----------------------------------||
|---------------------------------|---------------------------------o||
|---------------------------------|----------------------------------||
|---------------------------------|-----------------4-4--------------||
|-2-2-2-2-2-2-2-2-2-2-2-2-2-2-2-2-|-2-2-2-2-2-2-2-2-2-2-2-2-7-7-5-5-o||
|---------------------------------|---------------------0-0-5-5-3-3--||


                                                    Guitar Solo I
 2.
  N.C.                                               E5
 4/4
                                                  Gtr III
|-------------------------------------------------||----------------------------------------------------------||
|-------------------------------------------------||----------------------------------------------------------||
|-------------------------------2-4-5-------------||----------------------------------------------------------||
|-------------2-3-5-------2-3-5-------2-3-5-------||-------3-5-7-------5-7-9--------7-9-11---------9-11-12----||
|-------2-3-5-------2-3-5-------------------5-4-2-||-3-5-7-------5-7-9-------7-9-10--------9-10-12------------||
|-2-3-5-------------------------------------------||----------------------------------------------------------||
|
|                                                 Gtr IV
|-------------------------------------------------||----------------------------------------------------------||
|-------------------------------1-3-4-------------||----------------------------------------------------------||
|-------------0-2-3-------0-2-3-------0-2-3-------||----------------------------------------------------------||
|-------0-2-3-------0-2-3-------------------3-2-0-||-2--------------------------------------------------------||
|-0-2-3-------------------------------------------||-2--------------------------------------------------------||
|-------------------------------------------------||-0--------------------------------------------------------||


|--------------------11-12-14----------12-14-15----------14-15-17----------|
|-----------10-12-13----------12-13-15----------13-15-17----------15-17-19-|
|--9--11-12----------------------------------------------------------------|
|--------------------------------------------------------------------------|
|--------------------------------------------------------------------------|
|--------------------------------------------------------------------------|
|
|--------------------------------------------------------------------------|
|--------------------------------------------------------------------------|
|--------------------------------------------------------------------------|
|-(2)----------------------------------------------------------------------|
|-(2)----------------------------------------------------------------------|
|-(0)----------------------------------------------------------------------|


  A5
   ~~
|-17----|
|-------|
|-------|
|-------|
|-------|
|-------|
|
|-------|
|-------|
|-------|
|--7----|
|--7----|
|--5----|


                                                    ~~
|-12-----------------------------12-17-15-14-12--------|
|-----13----------------------13----------------15-13--|
|--------14----------------14--------------------------|
|-----------14----------14-----------------------------|
|--------------15-12h15--------------------------------|
|------------------------------------------------------|
|
|------------------------------------------------------|
|------------------------------------------------------|
|------------------------------------------------------|
|-(7)--------------------------------------------------|
|-(7)--------------------------------------------------|
|-(5)--------------------------------------------------|


  B/Eb                                                  C5    B5
                                                         ~~~~~~~~
|-17-14----------14-17p14-----------------------------------|---------14-17p14----------|
|-------16----16----------16----------------------------17--|-16---------------16-------|
|----------16----------------16----------------16----16-----|---------------------16----|
|-------------------------------16----------16----16--------|---------------------------|
|----------------------------------18p14-18-----------------|---------------------------|
|-----------------------------------------------------------|---------------------------|
|
|-----------------------------------------------------------|---------------------------|
|-----------------------------------------------------------|---------------------------|
|--4-----------------------------------------------------5--|--4------------------------|
|--4-----------------------------------------------------5--|--4------------------------|
|--6-----------------------------------------------------3--|--2------------------------|
|-----------------------------------------------------------|---------------------------|


  E5
                                    ~~~~~~~~~~~
|----------------------12-14h15p14-12-(12)----|
|-------------12-13-15------------------------|
|-14-12-14-15---------------------------------|
|---------------------------------------------|
|---------------------------------------------|
|---------------------------------------------|
|
|---------------------------------------------|
|---------------------------------------------|
|---------------------------------------------|
|--2------------------------------------------|
|--2------------------------------------------|
|--0------------------------------------------|


                                 A5
 ~~~~~                      ~~~~~~~~~~            ~~~
|-15-----12h14p12--------------|---------------|--------|
|-----------------15p13p12-13--|-(13)------13s=|=10-----|
|------------------------------|---------------|--------|
|------------------------------|---------------|--------|
|------------------------------|---------------|--------|
|------------------------------|---------------|--------|
|
|------------------------------|---------------|--------|
|------------------------------|---------------|--------|
|------------------------------|---------------|--------|
|-(2)--------------------------|---7-----------|-(7)----|
|-(2)--------------------------|---7-----------|-(7)----|
|-(0)--------------------------|---5-----------|-(5)----|

[ Tab from: http://www.guitaretab.com/m/misc-unsigned-bands/84141.html ]
  B/Eb                                            C5    B5
                                                   ~~~~~~~~
|----------------------------------14----14h17-14-15--|-14--------|
|-------------------------16----16----16--------------|-----------|
|----------------16----16----16-----------------------|-----------|
|-------16----16----16--------------------------------|-----------|
|-14h18----18-----------------------------------------|-----------|
|-----------------------------------------------------|-----------|
|
|-----------------------------------------------------|-----------|
|-----------------------------------------------------|-----------|
|--4-----------------------------------------------5--|--4--------|
|--4-----------------------------------------------5--|--4--------|
|--6-----------------------------------------------3--|--2--------|
|-----------------------------------------------------|-----------|


  E5
|---------------------------------------------------------------------------|
|---------------------------------------------------------------------------|
|---------------------------------------------------------------------------|
|-------------------------------------------------------13----------13-14---|
|----------12----------12-14-12----12-14-15-14-12-14-15----15-14-15---------|
|-12-14-15----15-14-15----------15------------------------------------------|
|
|---------------------------------------------------------------------------|
|---------------------------------------------------------------------------|
|---------------------------------------------------------------------------|
|--2------------------------------------------------------------------------|
|--2------------------------------------------------------------------------|
|--0------------------------------------------------------------------------|


|--------------------------------------------------------------------------|
|--------------------------------------------12----------12-13-12----12-13-|
|-----------11-12-11----11-12-14-12-11-12-14----14-12-14----------14-------|
|-14--13-14----------14----------------------------------------------------|
|--------------------------------------------------------------------------|
|--------------------------------------------------------------------------|
|
|--------------------------------------------------------------------------|
|--------------------------------------------------------------------------|
|--------------------------------------------------------------------------|
|-(2)----------------------------------------------------------------------|
|-(2)----------------------------------------------------------------------|
|-(0)----------------------------------------------------------------------|


  F#5
|--------------------------------------------------------------------------|
|--------------------------------------------------------------------------|
|--------------------------------------------------------------------------|
|-------------------------------------------------------15----------15-16--|
|----------14----------14-16-14----14-16-17-16-14-16-17----17-16-17--------|
|-14-16-17----17-16-17----------17-----------------------------------------|
|
|--------------------------------------------------------------------------|
|--------------------------------------------------------------------------|
|--------------------------------------------------------------------------|
|--4-----------------------------------------------------------------------|
|--4-----------------------------------------------------------------------|
|--2-----------------------------------------------------------------------|


|--------------------------------------------------------------------------|
|--------------------------------------------14----------14-15-14----14-15-|
|-----------13-14-13----13-14-16-14-13-14-16----16-14-16----------16-------|
|-16--15-16----------16----------------------------------------------------|
|--------------------------------------------------------------------------|
|--------------------------------------------------------------------------|
|
|--------------------------------------------------------------------------|
|--------------------------------------------------------------------------|
|--------------------------------------------------------------------------|
|-(4)----------------------------------------------------------------------|
|-(4)----------------------------------------------------------------------|
|-(2)----------------------------------------------------------------------|


  G5
    TP
|---------|
|-(15)----|
|---------|
|---------|
|---------|
|---------|
|
|---------|
|---------|
|---------|
|---5-----|
|---5-----|
|---3-----|


                      Guitar Solo II
  A5       Bb5         N.C.
   TP       TP                       ~~~~~~                                            ~~~
|-------------------||--------------17b19====|=17--17--17---17---17r15-12----------------|
|-17-------18-------||-20\-------------------|-------------------------------12h15p12-13-|
|-------------------||-----------------------|----------------------------14-------------|
|-------------------||-----------------------|-------------------------------------------|
|-------------------||-----------------------|-------------------------------------------|
|-------------------||-----------------------|-------------------------------------------|
|
|                           PM|                         PM|
|-------------------||-----------------------|-------------------------------------------|
|-------------------||-----------------------|-------------------------------------------|
|-------------------||---------------------3-|-----------------2-------------------------|
|--7-7-7-7--8-8-8-8-||--2-------5-2--------3-|--2--------------2-------------------------|
|--7-7-7-7--8-8-8-8-||--2---2-4-5-2--------1-|--2-------2-4----------5--------4----------|
|--5-5-5-5--6-6-6-6-||--0--------------------|--0--------------------3--------2----------|


 ~~~~                                     ~~      ~~
|----------12-------------------------------|--------------------------------|
|-12----------15-12-------------12-13p12----|-----------------15pb17==(15)r==|
|-------------------14----12h14----------15-|-14-12-----(12)\----------------|
|----------------------12-------------------|--------------------------------|
|-------------------------------------------|--------------------------------|
|-------------------------------------------|--------------------------------|
|
|  PM|
|-------------------------------------------|--------------------------------|
|-------------------------------------------|--------------------------------|
|-----------------------------------------3-|--------------------------------|
|-----------5--------2--------------------3-|--2-----------------------------|
|------2-4--5--------2--------------------1-|--2----2-4---3----------------2-|
|--0-0--------------------------------------|--0---------------2--------1----|


   ~~                                                  ~~~~~
|---------------------------------14-12-|-14-15-14-15-17b19-------17\--|
|-15--15\-------------13-12-13-15-------|------------------------------|
|---------14-12-14-15-------------------|------------------------------|
|---------------------------------------|------------------------------|
|---------------------------------------|------------------------------|
|---------------------------------------|------------------------------|
|
|      PM-|                                            PM---|
|---------------------------------------|------------------------------|
|---------------------------------------|------------------------------|
|----------------------------------3----|---------------------2--------|
|--2-------------5-----2-----------3----|--2------------------2--------|
|--2---2---4-----5-----2-----------1----|--2-----------2----4---5--4---|
|--0------------------------------------|--0--------------------3--2---|


|-------------------------------------------------------------------------|
|-------------------------------------------------------------------------|
|-------------------------------------19-18-17----------------------------|
|----------------------------19-18-17----------19-18-17----------19-18-17-|
|----------17-16-15-19-18-17----------------------------19-18-17----------|
|-17-16-15----------------------------------------------------------------|
|
|  PM-----------------------------------------------------------------------|
|---------------------------------------------------------------------------|
|---------------------------------------------------------------------------|
|-----------------------------------------------------------------3---------|
|--------------------------------------5--------2-----------------3---------|
|--------------------2--------4--------5--------2-----------------1---------|
|--0--------0---------------------------------------------------------------|


|----------------------------------------------------------------23p22p20--|
|-------------------22-21-20----------------------------22-21-20-----------|
|----------21-20-19----------21-20-19----------21-20-19--------------------|
|-21-20-19----------------------------21-20-19-----------------------------|
|--------------------------------------------------------------------------|
|--------------------------------------------------------------------------|
|
|--------------------------------------------------------------------------|
|--------------------------------------------------------------------------|
|--------------------------------------------------------------------------|
|--2-----------------------------------------------------------------------|
|--2-----------------2--------4--------3--------------------------2--------|
|--0--------------------------------------------2--------1-----------------|


|-23p22p20-23p22p20-23p22p20-23p22p20-23p22p20-23p22p20----------20p19p17-|
|-------------------------------------------------------20p19p17----------|
|-------------------------------------------------------------------------|
|-------------------------------------------------------------------------|
|-------------------------------------------------------------------------|
|-------------------------------------------------------------------------|
|
|                    PM-----------------------------------------------------|
|---------------------------------------------------------------------------|
|---------------------------------------------------------------------------|
|-----------------------------------------------------------------3---------|
|--2-----------------------------------5--------2-----------------3---------|
|--2-----------------2--------4--------5--------2-----------------1---------|
|--0------------------------------------------------------------------------|


|----------20p19p17-------------------------------------|
|-20p19p17----------20p19p17----------------------------|
|----------------------------20p19p17-20p19p17----------|
|----------------------------------------------19-17\---|
|-------------------------------------------------------|
|-------------------------------------------------------|
|
|                    PM-----------------------------------|
|---------------------------------------------------------|
|---------------------------------------------------------|
|--------------------------------------2------------------|
|--2-----------------------------------2------------------|
|--2-----------------2--------4-----------------5--4------|
|--0--------------------------------------------3--2------|


                 Gtr I
|----------------|--8--7--5-----7--5--------5----------------------------------------------|
|----------------|-----------8--------8--6-----8--6--5--8--6--5-----6--5--------5----------|
|----------------|-----------------------------------------------7--------7--5-----7--5--4-|
|----------------|-------------------------------------------------------------------------|
|----------------|-------------------------------------------------------------------------|
|----------------|-------------------------------------------------------------------------|
|
|                Gtr II
| PM|
|----------------|-------------------------------------------------------------------------|
|----------------|-16-15-13----15-13-------13----------------------------------------------|
|--------------3-|----------15-------15-14----15-14-12-15-14-12----14-12-------12----------|
|---------5-2--3-|----------------------------------------------15-------15-14----15-14-12-|
|-----2-4-5-2--1-|-------------------------------------------------------------------------|
|-0-0------------|-------------------------------------------------------------------------|


                                                                          H.=H
                                                                            E5
|-------------------------------------------------------------------------|------|
|-------------------------------------------------------------------------|------|
|--7--5--4-----5--4--------4----------------------------------------------|------|
|-----------7--------7--5-----7--5--4--7--5--4-----4----------------------|-2----|
|-----------------------------------------------7-----7--5--7--5--3--7--5-|-2----|
|-------------------------------------------------------------------------|-0----|
|
|-------------------------------------------------------------------------|------|
|-------------------------------------------------------------------------|------|
|-------------------------------------------------------------------------|------|
|-15-14-12----14-12-------12----------------------------------------------|-2----|
|----------15-------15-14----15-14-12-15-14-12----12----------------------|-2----|
|----------------------------------------------12----15-14-15-14-12-15-14-|-0----|


                Acoustic Break/Outro
             Slow Rock Q=85
             Emadd9                C           (C#)
  Gtr V
|------------||--------------------|-------------------|
|------------||o-------------------|-------------------|
|------------||------------0-------|-------0-----------|
|------------||--------2-4---4-2---|-----2---2---2---4-|
|------------||o-----2-----------2-|--3--------4---2---|
|------------||---0----------------|-------------------|
|
| Gtrs I, II
|                                     >
|------------||--------------------|-------------------|
|------------||o-------------------|-------------------|
|------------||--------------------|-------------------|
|-(2)--------||--(2)---------------|-(2)---------------|
|-(2)--------||o-(2)---------------|-(2)---------------|
|-(0)--------||--(0)---------------|-(0)---------------|


  Emadd9              C       Dadd11
|-------------------|-----------------|
|-------------------|-----1-------3---|
|-----------0-------|-----------------|
|-------2-4---4-2---|---2---2---4---4-|
|-----2-----------2-|-3-------5-------|
|--0----------------|-----------------|
|
|-------------------|-----------------|
|-------------------|-----------------|
|-------------------|-----------------|
|-(2)---------------|-----------------|
|-(2)---------------|-----------------|
|-(0)---------------|-----------------|


                                                       1.
  Emadd9            C       B/C       Emadd9            C       G       B7     N.C.
                                                       7/4
  Gtr V
|-----------------|-----------------|-----------------|-------------------------------||
|-----------------|-----1-------4---|-----------------|------------------------------o||
|---------0-------|-----------------|---------0-------|-----0-------------------------||
|-----2-4---4-2---|---2---2---5---5-|-----2-4---4-2---|---2---2-----0--------7--------||
|---2-----------2-|-3-------2-------|---2-----------2-|-3---------2---2----6-----3-2-o||
|-0---------------|-----------------|-0---------------|---------3-------/7-----7------||


 2H.=H                         Q=60
  C       G       B7     N.C.    Emadd9
                                4/4
|------------------------------|-----------0-2---0------|-^<5>----||
|------------------------------|---------0--------------|-^<5>----||
|-----0------------------------|-------0----------------|-^<5>----||
|---2---2-----0--------7-------|-----4------------------|---------||
|-3---------2---2----6-----3-2-|---2--------------------|---------||
|---------3-------/7-----7-----|-0----------------------|---------||


Tablature Legend
----------------
 h   - hammer-on
 p   - pull-off
 b   - bend
 pb  - pre-bend
 r   - bend release (if no number after the r, then release immediately)
 /\  - slide into or out of (from/to "nowhere")
 s   - legato slide
 S   - shift slide
  - natural harmonic
[n]  - artificial harmonic
n(n) - tapped harmonic
 ~   - vibrato
 tr  - trill
 T   - tap
 TP  - trem. picking
 PM  - palm muting
\n/  - tremolo bar dip; n = amount to dip
 \n  - tremolo bar down
 n/  - tremolo bar up
/n\  - tremolo bar inverted dip
 =   - hold bend; also acts as connecting device for hammers/pulls
 <>  - volume swell (louder/softer)
 x   - on rhythm slash represents muted slash
 o   - on rhythm slash represents single note slash

Misc Legend
-----------
 |  - bar
||  - double bar
||o - repeat start
o|| - repeat end
*|  - double bar (ending)
 :  - bar (freetime)
 $  - Segno
 &  - Coda
Tempo markers -  = BPM(8/16=s8/s16), where s8 = swing 8ths, s16 = swing 16ths


***************************************************************************************
* Generated using Power Tab Editor by Brad Larsen - http://powertab.guitarnetwork.org *
***************************************************************************************
Related for First Murdehh After Midnight - Sell Your Soul To The Highest Bidder tab