Song name
# A B C D E F G H I J K L M N O P Q R S T U V W X Y Z

Misc Unsigned Bands - Wellington - Blow Me Away tab

Band:Wellington
Song:Blow Me (Away)
Tuning: Dropped - D

Intro:
Distortion
                                  x7                 Last Time
|------------------|-----------------|------------------------|
|------------------|-----------------|------------------------|
|------------------|-----------------|------------------------|
|------------------|-----------------|------------------------|
|-12--12--15-15-15-|-12-12-15-151515-|-12--12-12-10--10-10-10-|
|--0---0---0--0--0-|-0--0--0--0-0-0--|--0---0--0--0---0--0--0-|2x

Verse:
Distortion
                             x7           Last Time
|-------------|-----------------|------------------|
|-------------|-----------------|------------------|
|-------------|-----------------|------------------|
|-------------|-----------------|-x-x--5-5--3-3--0-|
|-5--5--8-8-8-|-5--5--8--8-8-8--|-x-x--5-5--3-3--0-|
|-0--0--0-0-0-|-0--0--0--0-0-0--|-x-x--5-5--3-3--0-|2x
pm.  .  . . .  .  .  .  . . .

Intro:
Distortion
                                  x7                 Last Time
|------------------|-----------------|------------------------|
|------------------|-----------------|------------------------|
|------------------|-----------------|------------------------|
|------------------|-----------------|------------------------|
|-12--12--15-15-15-|-12-12-15-151515-|-12--12-12-10--10-10-10-|
|--0---0---0--0--0-|-0--0--0--0-0-0--|--0---0--0--0---0--0--0-|

Verse:
Distortion
                             x7           Last Time
|-------------|-----------------|------------------|
|-------------|-----------------|------------------|
|-------------|-----------------|------------------|
|-------------|-----------------|-x-x--5-5--3-3--0-|
|-5--5--8-8-8-|-5--5--8--8-8-8--|-x-x--5-5--3-3--0-|
|-0--0--0-0-0-|-0--0--0--0-0-0--|-x-x--5-5--3-3--0-|2x
pm.  .  . . .  .  .  .  . . .

Chorus:
Distortion
                           x3
|----------------------------|----------------------------|
|----------------------------|----------------------------|
|----------------------------|----------------------------|
|-0--x-x-3--x-x-5--5/8-8-8-8-|-0--x-x-3--3/5-5-5-3--3-3-3-|
|-0--x-x-3--x-x-5--5/8-8-8-8-|-0--x-x-3--3/5-5-5-3--3-3-3-|
|-0--x-x-3--x-x-5--5/8-8-8-8-|-0--x-x-3--3/5-5-5-3--3-3-3-|x2

Short Intro:
Distortion

                                  
|------------------|-----------------|-----------------------|
|------------------|-----------------|-----------------------|
|------------------|-----------------|-----------------------|
|------------------|-----------------|-----------------------|
|-12--12--15-15-15-|-12-12-15-151515-|-12--12-12--151515-12*-|
|--0---0---0--0--0-|-0--0--0--0-0-0--|--0---0--0---0-0-0--0--|
* - Quick Stop

Verse
Chorus
Bridge(No Guitar)- (feedback)
Chorus

Outro:
Distortion
                         x4
|--------------------------|--------------|
|--------------------------|--------------|
|--------------------------|--------------|
|-0--0-7-7-7--5-5-5--3-5-3-|-0----------0-|
|-0--0-7-7-7--5-5-5--3-5-3-|-0----------0-|
|-0--0-7-7-7--5-5-5--3-5-3-|-0------15\-0-|
Tap to rate this tab
 
# A B C D E F G H I J K L M N O P Q R S T U V W X Y Z