Song name
# A B C D E F G H I J K L M N O P Q R S T U V W X Y Z

Misc Unsigned Bands - Wellington - Angels In The Fire tab

Band:Wellington
Song:Angels In The Fire
Tuning: Dropped- D

Verse 1:(Delay)
|----------------------------------------------|
|----------------------------------------------|
|------------------------------------------<7>-|
|-------2-32-------2-65-------2-32-------0-----|
|---0----------0----------0----------0---------|
|-0---0------0---0------0---0------0---0-------|

Chorus 1:(Delay)
|------------------------------|
|------------------------------|
|------------------------------|notes in (#) are created by the delay.
|----9-7------------9-7--------|
|--------8-7------------8-7-5--|
|--0----------0-(0)------------|x3
pm . . . . .  .  .  . . . . .

|----------------|
|----------------|
|----------------|
|----9-7------7--|
|--------8-7--5--|
|--0-------------|4th time
pm . . . . .  

Verse 2:
|----------------------------------------------|
|----------------------------------------------|
|------------------------------------------<7>-|
|-------2-32-------2-65-------2-32-------0-----|
|---0----------0----------0----------0---------|
|-0---0------0---0------0---0------0---0-------|

Chorus 2:(delay Off, Distortion)
|------------------------------|
|------------------------------|
|------------------------------|
|----9-7------------9-7--------|
|--0-----8-7--0--0------8-7-5--|
|--0----------0--0-------------|x3

|------------------------|
|------------------------|
|------------------------|
|----9-7------7--7777777-|
|--0-----8-7--5--5555555-|
|--0---------------------|4th time

Verse 3:(Distortion)
|--------------------------------------------------|
|----------------------------------------------15--|
|----------------------------------------------14--|
|-0-7-0-2-32--0-7-0-2-65--0-7-0-2-32--0-7-0-12-12--|
|-0-7-0-2-32--0-7-0-2-65--0-7-0-2-32--0-7-0-12-----|
|-0-7-0-2-32--0-7-0-2-65--0-7-0-2-32--0-7-0-12-----|

Breakdown:(Distortion)

|---------------|
|---------------|
|-12------------|
|-10(Bass riff)-|
|-10------------|
|-10------------|x8

(Wah On)
|-----------------|
|-----------------|
|-----------5-3---|
|-----3---3-----5-|
|-3-5---5---------|
|-----------------|x3

|----------------|
|----------------|
|----------------|
|-----3----------|
|-3-5---5-3-5-3~-|
|----------------|

|-------------------------|
|-------------------------|
|----------------17-15----|
|-------15----15-------17-|
|-15-17----17-------------|
|-------------------------|x3

|----------------------------|
|----------------------------|
|----------------------------|
|-------15-------------------|
|-15-17----17-15-17-15~-~-~-b|
|----------------------------|

Chorus 3:(Distortion)
|------------------------------|
|------------------------------|
|------------------------------|
|----9-7------------9-7--------|
|--0-----8-7--0--0------8-7-5--|
|--0----------0--0-------------|x3

|------------------------|
|------------------------|
|------------------------|
|----9-7------7--7777777-|
|--0-----8-7--5--5555555-|
|--0---------------------|4th time

Outro:(Clean, Delay)
|----------------------------------------------|
|----------------------------------------------|
|------------------------------------------<7>-|
|-------2-32-------2-65-------2-32-------0-----|
|---0----------0----------0----------0---------|
|-0---0------0---0------0---0------0---0-------|
Tap to rate this tab
# A B C D E F G H I J K L M N O P Q R S T U V W X Y Z