Song name
# A B C D E F G H I J K L M N O P Q R S T U V W X Y Z

Misc Unsigned Bands - Wellington - Aunt Hazel tab

Band:Wellington
Song:Aunt Hazel
Tuning:Drop - B(ebgdaB)

Intro:

|---------------------------------------------------------|
|---------------------------------------------------------|
|---------------------------------------------------------|
|---------------------------------------------------------|
|----2-------------2---------------2-------------2----2-2-|
|-4b---4-2-3p2--4b---4-2-3p2p0--4b---4-2-3p2--4b---4--0-0-|(x3)

Riff:(No VOx overtop)

|-------------------------------------------------|
|-------------------------------------------------|
|-------------------------------------------------|
|-------------------------------------------------|
|-2-2--2------2-2--2------2-2--2------999/10-1010-|
|-0-0--0--5br-0-0--0--3br-0-0--0--6br-777/8--8-8--|

Verse:
                              x3               4th time
|-------------------------------|-----------------------|
|-------------------------------|-----------------------|
|-------------------------------|-----------------------|
|-------------------------------|-----------------------|
|-2-2--2---------2-2---7\5-2----|2-2--2-22222222222-----|
|-0-0--0--0-0000-0-0-0-5\3-0-00-|0-0--0-00000000000-----|
pm        . ....     .       ..         ...........

Chorus:
                               x3                            4th time
|------------------------------------|----------------------------------|
|------------------------------------|----------------------------------|
|------------------------------------|----------------------------------|
|------------------------------------|----------------------------------|
|-7--7--10-10-9-9-9------------------|-7-7--1010-12-12--12-12--12121212-|
|-5--5--8--8-\7-7-7---0-3-5-3-0-*2*/-|-5-5--8-8--10-10--10-10--10101010-|

Bridge:(2:20)
|-------------------------------------|
|-------------------------------------|
|-------------------------------------|
|-------------------------------------|
|-5h7-----5h7---------5h7-----5h7-----|
|-5---0-0-5---0-0-0-0-5---0-0-5-------|(x2)
pm    . .     . . . .     . .

|-------------------------------------|
|-------------------------------------|
|-------------------------------------|
|-------------------------------------|      (all riffs x2)
|-3h5-----3h5---------3h5-----3h5-----|
|-3---0-0-3---0-0-0-0-3---0-0-3-------|
pm    . .     . . . .     . .

|-------------------------------------|
|-------------------------------------|
|-------------------------------------|
|-------------------------------------|
|-7h9-----7h9---------7h9-----7h9-----|
|-7---0-0-7---0-0-0-0-7---0-0-7-------|
pm    . .     . . . .     . .

Breakdown:

 w/ Wah
|-------------------------------------|
|---------7-7-7-7-7-7-7-7-7-7---------|
|---------10101010101010101010--------|
|-------(Gradual Closing of Wah)------|
|-------------------------------------|
|-------------------------------------|(x3)


|-------------------------------------|
|-------------------------------------|
|-------------------------------------|
|-------------------------------------|
|-2-2--2------------------------------|
|-0-0--0---x/////////////////---------|


|-------------------------------------------|
|-------------------------------------------|
|--------4---------7--------4---------16b---|
|-------------------------------------------|
|-2-2--2-2--2-2--2-5-2-2--2-2--2-2--2-14----|
|-0-0--0----0-0--0---0-0--0----0-0--0-------|
Tap to rate this tab
# A B C D E F G H I J K L M N O P Q R S T U V W X Y Z