Song name
# A B C D E F G H I J K L M N O P Q R S T U V W X Y Z

Misc Unsigned Bands - Wellington - It Wasnt Suicideit Was A Cry For Help tab

Band: Wellington
Song: It Wasn't Suicide(It Was A Cry For Help)
Tuning: Standard
Guitar 1: Chris Stewart
Guitar 2: Kirk Ramsay

Intro:(Guitar 1)
Clean
|---------0------------------------------------3----------------------|
|-------1---1---1--------1-0h1p0-----------------1---3---------3------|
|-----2-------2--------2--------2---2--------0-----0---------0----0---|
|---3----------------2------------2--------0---------------2--------2-|
|-3----------------0---------------------2---------------2------------|
|--------------------------------------3---------------0--------------|

Verse:(Guitar 1)
Clean
Play Intro 2x

Prechorus:
(Guitar 1)
Strum Verse Chords

Guitar 2:
Begin feedback last 1/2 of 2nd measure

Chorus:(Guitars 1 + 2)
Distortion
|----|---------------------------------|
|----|---------------------------------|
|----|---------------------------------|
|----|-3-3-3-3-3-3-3-3-2-2-2-2-2-2-2-2-|
|----|-3-3-3-3-3-3-3-3-2-2-2-2-2-2-2-2-|
|-17\|-1-1-1-1-1-1-1-1-0-0-0-0-0-0-0-0-|
  ^ 
(First Time Only)

|-------------------------------------|
|-------------------------------------|
|------------------------------7-7-7--|
|--7-7-7-7-7-7-7-7--7-7-7-7----7-7-7--|
|--7-7-7-7-7-7-7-7--7-7-7-7----5-5-5--|
|-/5-5-5-5-5-5-5-5-/5-5-5-5-xx--------|Whole Thing x3

End On:
|--------------------|
|--------------------|
|--------------------|
|-3-3-3-3-3-3-3-3-2~-|
|-3-3-3-3-3-3-3-3-2~-|
|-1-1-1-1-1-1-1-1-0~-|

Solo 1: (Guitar 2)
Distortion

|-----------------------------------------------------------------|
|-----------------------------------------------------------------|
|-----------------------------------------------------------------|
|-3-3-3-3-3-3-3-3-7-7-7-7-7-7-7-7-5-5-5-5-5-5-5-5-2-2-2-2-2-2-2-2-|
|-3-3-3-3-3-3-3-3-7-7-7-7-7-7-7-7-5-5-5-5-5-5-5-5-2-2-2-2-2-2-2-2-|
|-1-1-1-1-1-1-1-1-5-5-5-5-5-5-5-5-3-3-3-3-3-3-3-3-0-0-0-0-0-0-0-0-|
pm. . . . . . . . . . . . . . . . . . . . . . . . . . . . . . . . 

(Guitar 1)
Distortion
|------------------------------------------------------|
|-13b-r-p-10-------------------------------------------|
|------------12--10h12p10----------10h12p10------------|
|-------------------------12--10-8---------12---10/13~-|
|------------------------------------------------------|
|------------------------------------------------------|

|-----------------------------------------------|
|-16b-r-p-13------------------------------------|
|------------15--13h15p13-----------13h15p13----|
|-------------------------15--13-15---------10~-|
|-----------------------------------------------|
|-----------------------------------------------|

(Wah On)
|-----------------------------------------|
|-11p10-13p10-11p10-13p10-11p10-13p10-----|
|-------------------------------------12~-|
|-----------------------------------------|
|-----------------------------------------|
|-----------------------------------------|
  ^     ^     ^     ^     ^     ^     ^

|-----------------------------------|
|-11p10-13p10-11p10-13p10-----------|
|-------------------------12-10-----|
|-------------------------------12~-|
|-----------------------------------|
|-----------------------------------|
  ^     ^     ^     ^     ^     ^

|------------------------------------------------------|
|----------10b----------10b-----------10b--------------|
|----------10b----------10b-----------10b--------------|
|-10h12-10-----10h12-10------10h12-10-----12-10--------|
|-----------------------------------------------12-10\-|
|------------------------------------------------------|
  ^        ^   ^        ^    ^        ^      ^     ^

Chorus 2:
(Guitar 1) - Play Chorus 1
(Guitar 2) - Play Chorus 1

Bridge:
(Guitar 1)
Distortion

|----------------------------------|
|----------------------------------|
|----------------------------------|
|-7-7-------7-7-------5-5------5-5-|
|-7-7-------7-7-------5-5------5-5-|
|-5-5-------5-5-------3-3------3-3-|x2

(Guitar 2)
Clean

|-0--0-0--0--0-0--0-0--0-0-0-0-|
|-1--1-1--1--1-0--0-0--0-0-0-0-|
|-2--2-2--2--2-2--2-2--2-2-2-2-|
|-2--2-2--2--2-2--2-2--2-2-2-2-|x2
|-0--0-0--0--0-0--0-0--0-0-0-0-|
|------------------------------|

|-3--3-3-3--3-3--3-3--3-3-3-3-|       
|-1--1-1-1--1-0--0-0--0-0-0-0-|
|-0--0-0-0--0-0--0-0--0-0-0-0-|
|-0--0-0-0--0-0--0-0--0-0-0-0-|x2
|-2--2-2-2--2-2--2-2--2-2-2-2-|
|-3--3-3-3--3-3--3-3--3-3-3-3-|

Solo 2:
(Guitar 2)
Continue Bridge

(Guitar 1)
Distortion

|---------|----------------------------------------------|
|---------|-8b-r-p-5-------------------------------------|
|-----5h7-|----------7~--5h7p5---------------------------|
|-5h7-----|--------------------7-5----5h7p5--------------|
|---------|------------------------7--------7--5-3-2-b-r-|
|---------|----------------------------------------------|

|-----------------------------------------|
|---------------------------------5-8-----|
|---------------------------5-7-7b----7-5-|
|---------5----------7--5-7---------------|
|-----5-7--------5-7----------------------|
|-5-8--------5-8--------------------------|
pm. . . .    . . . .    . . . .

|--------------------------------------------------------|
|--------------------------------------------------------|
|-5h7p5h7p5h7p5h7p5h7p5h7p5------------------------------|
|---------------------------7-5h7p5h7p5h7p5h7p5h7p5h7----|
|-----------------------------------------------------7\-|
|--------------------------------------------------------|

Build-Up:
(Guitar 1)
Distortion
|-----------------------------------------------------------------|
|-----------------------------------------------------------------|
|-----------------------------------------------------------------|
|-3-3-3-3-3-3-3-3-2-2-2-2-2-2-2-2-7-7-7-7-7-7-7-7-7-7-7-7-7-7-7-7-|
|-3-3-3-3-3-3-3-3-2-2-2-2-2-2-2-2-7-7-7-7-7-7-7-7-7-7-7-7-7-7-7-7-|
|-1-1-1-1-1-1-1-1-0-0-0-0-0-0-0-0-5-5-5-5-5-5-5-5-5-5-5-5-5-5-5-5-|
pm. . . . . . . . . . . . . . . . . . . . . . . . . . . . . . . .

|------------------------------------------------------------------|
|------------------------------------------------------------------|
|------------------------------------------------------------7-7-7-|
|-3-3-3-3-3-3-3-3-2-2-2-2-2-2-2-2-7-7-7-7-7-7-7-7-7-7-7-7-xx-7-7-7-|
|-3-3-3-3-3-3-3-3-2-2-2-2-2-2-2-2-7-7-7-7-7-7-7-7-7-7-7-7-xx-5-5-5-|
|-1-1-1-1-1-1-1-1-0-0-0-0-0-0-0-0-5-5-5-5-5-5-5-5-5-5-5-5-xx-------|

(Guitar 2)
Distortion
Join in 2nd time

|-13-12-13-12-13-12-13-12-15-12-15-12-15-12-15-12-|
|-------------------------------------------------|
|-------------------------------------------------|
|-------------------------------------------------|
|-------------------------------------------------|
|-------------------------------------------------|

|-15/17-17-17-17-17-17-17-15/17-17-17b-17bb-17bbb-tr-|
|----------------------------------------------------|
|----------------------------------------------------|
|----------------------------------------------------|
|----------------------------------------------------|
|----------------------------------------------------|

Chorus 3:
(Guitar 1) - Play Chorus 1
(Guitar 2) - Play Chorus 1

Outro:
(Guitar 1)

|---------0------------------------------------3-----------------|
|-------1---1---1--------1-0h1p0-----------------1---3---------3-|
|-----2-------2--------2--------2---2--------0-----0---------0---|
|---3----------------2------------2--------0---------------2-----|
|-3----------------0---------------------2---------------2-------|
|--------------------------------------3---------------0---------|
                                       ^ Begin Slowing
End On:
|-0---------|
|--1--------|
|---2-------|
|----2------|
|-----0-----|
|-----------|

Tap to rate this tab
 
# A B C D E F G H I J K L M N O P Q R S T U V W X Y Z