Guitaretab - guitar tabs
Song name
# A B C D E F G H I J K L M N O P Q R S T U V W X Y Z

Misc Unsigned Bands - Straight No Chaser - Cathy tab

-------------------------------------------------------------------------------
			    Cathy - Straight No Chaser
-------------------------------------------------------------------------------
Tabbed by:Alex Murray
Email:alexmurray123@hotmail.co.uk

Tuning: E A D G B E

INTRO
                                                                 Play 4 Times
E|---------------------------------------------------------------------------|
B|---------------------------------------------------------------------------|
G|o--2-2----4-4-2------------4-4-2----------4-4-2----7-7----9-9-7-----------o|
D|o--2-2-------------2-2--------------4-4------------7-7--------------------o|
A|---0-0-------------2-2--------------4-4------------5-5---------------------|
E|-------------------0-0--------------2-2------------------------------------|

VERSE 1

E|---------------------------------------------------------------------------|
B|---------------------------------------------------------------------------|
G|o--2-2---------------------------------------------7-7--------------------o|
D|o--2-2-------------2-2--------------4-4------------7-7--------------------o|
A|---0-0-------------2-2--------------4-4------------5-5---------------------|
E|-------------------0-0--------------2-2------------------------------------|



E|---------------------------------------------------------------------------|
B|---------------------------------------------------------------------------|
G|o--2-2-------------9-9-----------------------------7-7--------------------o|
D|o--2-2-------------9-9--------------4-4------------7-7--------------------o|
A|---0-0-------------7-7--------------4-4------------5-5---------------------|
E|------------------------------------2-2------------------------------------|



E|---------------------------------------------------------------------------|
B|---------------------------------------------------------------------------|
G|o--2-2----4-4-2------------4-4-2----------4-4-2----7-7----9-9-7-----------o|
D|o--2-2-------------2-2--------------4-4------------7-7--------------------o|
A|---0-0-------------2-2--------------4-4------------5-5---------------------|
E|-------------------0-0--------------2-2------------------------------------|


VERSE 2

E|---------------------------------------------------------------------------|
B|---------------------------------------------------------------------------|
G|o--2-2---------------------------------------------7-7--------------------o|
D|o--2-2-------------2-2--------------4-4------------7-7--------------------o|
A|---0-0-------------2-2--------------4-4------------5-5---------------------|
E|-------------------0-0--------------2-2------------------------------------|



E|---------------------------------------------------------------------------|
B|---------------------------------------------------------------------------|
G|o--2-2-------------9-9-----------------------------7-7--------------------o|
D|o--2-2-------------9-9--------------4-4------------7-7--------------------o|
A|---0-0-------------7-7--------------4-4------------5-5---------------------|
E|------------------------------------2-2------------------------------------|

CHORUS

E|---------------------------------------------------------------------------|
B|---------------------------------------------------------------------------|
G|----------------9--9--9--9/11--11--11--11--7--7--7--7----------------------|
D|---7--7--7--7--------------------------------------------------------------|
A|---------------------------------------------------------------------------|
E|---------------------------------------------------------------------------|

[ Tab from: http://www.guitaretab.com/m/misc-unsigned-bands/84223.html ]
E|---------------------------------------------------------------------------|
B|---------------------------------------------------------------------------|
G|o--2-2----4-4-2------------4-4-2----------4-4-2----7-7----9-9-7-----------o|
D|o--2-2-------------2-2--------------4-4------------7-7--------------------o|
A|---0-0-------------2-2--------------4-4------------5-5---------------------|
E|-------------------0-0--------------2-2------------------------------------|

VERSE 3

E|---------------------------------------------------------------------------|
B|---------------------------------------------------------------------------|
G|o--2-2---------------------------------------------7-7--------------------o|
D|o--2-2-------------2-2--------------4-4------------7-7--------------------o|
A|---0-0-------------2-2--------------4-4------------5-5---------------------|
E|-------------------0-0--------------2-2------------------------------------|



E|---------------------------------------------------------------------------|
B|---------------------------------------------------------------------------|
G|o--2-2-------------9-9-----------------------------7-7--------------------o|
D|o--2-2-------------9-9--------------4-4------------7-7--------------------o|
A|---0-0-------------7-7--------------4-4------------5-5---------------------|
E|------------------------------------2-2------------------------------------|

CHORUS

E|---------------------------------------------------------------------------|
B|---------------------------------------------------------------------------|
G|----------------9--9--9--9/11--11--11--11--7--7--7--7----------------------|
D|---7--7--7--7--------------------------------------------------------------|
A|---------------------------------------------------------------------------|
E|---------------------------------------------------------------------------|

BRIDGE
								  Play 6 Times
E|---------------------------------------------------------------------------|
B|---------------------------------------------------------------------------|
G|o-------------------9---9---x---x---11---11---x---x---7---7---x---x-------o|
D|o---7---7---x---x---9---9---x---x---11---11---x---x---7---7---x---x-------o|
A|----7---7---x---x---7---7---x---x---9----9----x---x---5---5---x---x--------|
E-|---5---5---x---x----------------------------------------------------------|

VERSE 4

E|---------------------------------------------------------------------------|
B|---------------------------------------------------------------------------|
G|o--2-2---------------------------------------------7-7--------------------o|
D|o--2-2-------------2-2--------------4-4------------7-7--------------------o|
A|---0-0-------------2-2--------------4-4------------5-5---------------------|
E|-------------------0-0--------------2-2------------------------------------|



E|---------------------------------------------------------------------------|
B|---------------------------------------------------------------------------|
G|o--2-2-------------9-9-----------------------------7-7--------------------o|
D|o--2-2-------------9-9--------------4-4------------7-7--------------------o|
A|---0-0-------------7-7--------------4-4------------5-5---------------------|
E|------------------------------------2-2------------------------------------|

CHORUS

E|---------------------------------------------------------------------------|
B|---------------------------------------------------------------------------|
G|o---------------9--9--9--9/11--11--11--11--7--7--7--7---------------------o|
D|o--7--7--7--7-------------------------------------------------------------o|
A|---------------------------------------------------------------------------|
E|---------------------------------------------------------------------------|

END

E|----|
B|----|
G|----|
D|-7--|
A|-7--|
E|-5--|
Related for Straight No Chaser - Cathy tab
Advertisement will be closed in 10 seconds