Song name
# A B C D E F G H I J K L M N O P Q R S T U V W X Y Z

Misc Unsigned Bands - Strike At Moonlight - Autumn Burns Black tab

------------------------------------------------------------------------------
		Autumn Burns Black - Strike at Moonlight
------------------------------------------------------------------------------
Tabbed by: Alex
Email: vileandvenomous@yahoo.com

Tuning: Open c minor (from low to high c,g,c,eb,g,c)

NOTE: NONE OF THE SQUEELS HAVE BEEN TABBED, BE OKAY WITH IT!

Figure 1
Warm clean tone with reverb delay and chorus, strum chords
|-9---3---10--5-------------------------------------------------------------|
|-10--3---10--5-------------------------------------------------------------|
|-7---4---11--6-------------------------------------------------------------|
|-7---3---10--5-------------------------------------------------------------|
|-7---3---10--5-------------------------------------------------------------|
|-7---3---10--5-------------------------------------------------------------|

Figure 2
Distorted tone, palm muted, repeat four times
|---------------------------------------------------------------------------|
|---------------------------------------------------------------------------|
|---------------------------------------------------------------------------|
|-777--7-7--7---------------------------------------------------------------|
|-777--7-7--7---------------------------------------------------------------|
|-777--7-7--7---------------------------------------------------------------|

Figure 3
Distorted tone, palm muted, repeat four times
|---------------------------------------------------------------------------|
|---------------------------------------------------------------------------|
|---------------------------------------------------------------------------|
|-333--3-3--3---------------------------------------------------------------|
|-333--3-3--3---------------------------------------------------------------|
|-333--3-3--3---------------------------------------------------------------|

Figure 4
Distorted tone, palm muted
|---------------------------------------------------------------------------|
|---------------------------------------------------------------------------|
|---------------------------------------------------------------------------|
|-333--3-3--3----333--3-3--3----555--5-5--5----555--5-5--5------------------|
|-333--3-3--3----333--3-3--3----555--5-5--5----555--5-5--5------------------|
|-333--3-3--3----333--3-3--3----555--5-5--5----555--5-5--5------------------|

Figure 5
Distorted tone, use palm muted down picking and legato, repeat four times
|---------------------------------------------------------------------------|
|---------------------------------------------------------------------------|
|---6-4----------------7-6--------------------------------------------------|
|-------5-3-5-3h5p3--------7-5-7-5h7p5--------------------------------------|
|---------------------------------------------------------------------------|
|-33-3-3-3-3-3-------55-5-5-5-5-5-------------------------------------------|

Figure 6
Distorted tone, strum chords, let ring
|---------------------------------------------------------------------------|
|---------------------------------------------------------------------------|
|---------7-----------------------------------------------------------------|
|-7---3---5---5-------------------------------------------------------------|
|-7---3---3---5-------------------------------------------------------------|
|-7---3-------5-------------------------------------------------------------|






Figure 7
Distorted Tone, use palm muted down picking, repeat four times
|---------------------------------------------------------------------------|
|---------------------------------------------------------------------------|
|---------------------------------------------------------------------------|
|-2-2--2-2-2--2-3-3--3-3-3--3-----------------------------------------------|
|-2-2--2-2-2--2-3-3--3-3-3--3-----------------------------------------------|
|-2-2--2-2-2--2-3-3--3-3-3--3-----------------------------------------------|

Figure Eight
Distorted tone, strum first three chords then down pick with and without palm muting
|---------------------------------------------------------------------------|
|---------------------------------------------------------------------------|
|---------------------------------------------------------------------------|
|-9---5---7---0---0-0-0-0---0-0-0-0---0-0-----------------------------------|
|-7---3---5---0---0-0-0-0---0-0-0-0---0-0-----------------------------------|
|-7---3---5---0---0-0-0-0---0-0-0-0---0-0-----------------------------------|
                 [p.m.-]   [p.m.-]   [p.m.-]

| /  slide up
| \  slide down
| h  hammer-on
| p  pull-off
| ~  vibrato
| +  harmonic
| x  Mute note
==============================================================================
Tap to rate this tab
# A B C D E F G H I J K L M N O P Q R S T U V W X Y Z