Song name
# A B C D E F G H I J K L M N O P Q R S T U V W X Y Z

Misc Unsigned Bands - Bostonbrosz - Love Hurts tab

-------------------------------------------------------------------------------
			     Love Hurts by BostonBrosz
-------------------------------------------------------------------------------
Tabbed exactly like I saw it at their performance at Harvard Square. Gotta support these guys, great song!

Tabbed by: BBszFan1
Email:yeebeyotch21@yahoo.com

Tuning:

e|-------------------------------------------------------------------------|
B|----------------------111xx11--------------------------------------------|
G|----------------------222xx225555----------------------------------------|
D|----------------0-----222xx223333--66666---------------------------------|
A|-----0-----0--3---0----------3333--66666----------------------2--1-5-----|
E|-0h3---0h3-------------------------44444---2--4--5--1--2h3p0----2----2---|
Repeat 2x

e|--1-----1-----1-----------------------------------------1-----------1----|
B|--2---2---2-----2---------------------------------------0---------0------|
G|--0-0-------0-----0---3-3/6--1--3--1---4----------------0-------0--------|
D|--------------------3-3-3/6---3---3--4-------1-2-3p0----0-----0----------|
A|----------------------2-2/4-------------1-2-3-----------2---2------------|
E|--------------------------------------------------------3-3--------------|
Tap to rate this tab
# A B C D E F G H I J K L M N O P Q R S T U V W X Y Z