Song name
# A B C D E F G H I J K L M N O P Q R S T U V W X Y Z

Misc Unsigned Bands - Of Savagery And Eloquence - Frozen Wasteland tab

Frozen Wasteland
Tuning: standard
Key: E
T.S.: 6/8

Verse

guitar 1 (clean):

e|------|------|------|------|
b|------|------|------|------|
g|--0--0|--0--0|--0--0|------|
D|-2--2-|-2--2-|-2--2-|--0--0|
A|2--2--|2--2--|3--3--|-2--0-|
E|------|------|------|3--2--|
repeat x4
(repeat x6 for verse 1 & solo only)

guitar 2 (dist.):
P.M.-------------------------|
e|------|------|------|------|
b|------|------|------|------|
g|--9--9|--9--9|--5--5|------|
D|-9--9-|-9--9-|-5--5-|-5--5-|
A|7--7--|7--7--|3--3--|5--5--|
E|------|------|------|3--2--|
repeat x4
(repeat x6 for verse 1 & solo only)


Bridge

guitar 1 (O.Dist.)

e|------|------|------|------|
b|------|------|------|------|
g|00-000|00-000|55-555|------|
D|22-222|22-222|55-555|555555|
A|22-222|22-222|33-333|555555|
E|00-000|00-000|------|333222|
repeat x3
(repeat x4 for 2nd bridge only)

guitar 2 (O.Dist.)

e|------|------|------|------|
b|------|------|------|------|
g|999999|999999|555555|------|
D|999999|999999|555555|555555|
A|777777|777777|333333|555555|
E|------|------|------|333222|
repeat x3
(repeat x4 for 2nd bridge only)


Interlude

guitar 1 (clean):
e|------|------|------|------|------|------|------|------|
b|------|------|------|------|------|------|------|------|
g|--0--0|--0--0|--0--0|--0--0|--0--0|--0--0|--0--0|--0--0|
D|-2--2-|-2--2-|-2--2-|-2--2-|-2--2-|-2--2-|-2--2-|-2--2-|
A|2--2--|2--2--|2--2--|2--2--|2--2--|2--2--|2--2--|2--2--|
E|------|------|------|------|------|------|------|------|
Tap to rate this tab
 
# A B C D E F G H I J K L M N O P Q R S T U V W X Y Z