Song name
# A B C D E F G H I J K L M N O P Q R S T U V W X Y Z

Misc Unsigned Bands - Punish And Torment - Immortal Sin tab

band:Punish and Torment
song:Immortal sin
album:Hell awaits

legend
x=mute string
*=harmonic
s=slide to string
^=bend string
t=tremello picking

guitarists-zeropulse,faint


intro(rythem)-zeropulse
1-------------------------------------------------------------|
2-------------------------------------------------------------|
3-5-5-5-5-5-5-5-5-5-5-5-5-8-8-8-8-8-8-8-8-6-6-6-6-6-6-6-6-6-6-|
4-3-3-3-3-3-3-3-3-3-3-3-3-6-6-6-6-6-6-6-6-6-6-6-6-6-6-6-6-6-6-|
5-3-3-3-3-3-3-3-3-3-3-3-3-6-6-6-6-6-6-6-6-4-4-4-4-4-4-4-4-4-4-|
6-------------------------------------------------------------|

1---------------------------------------------------|
2---------------------------------------------------|
3-x-x-x-x-x-x-x-x-x-x-x-x-x-x-x-7-7-7-7-7-7-7-9-9-9-|
4-7-7-7-7-7-7-7-7-7-7-7-7-7-7-7-9-9-9-9-9-9-9-9-9-9-|
5-5-5-5-5-5-5-5-5-5-5-5-5-5-5-5-7-7-7-7-7-7-7-7-7-7-|
6---------------------------------------------------|

1-----------|
2-----------|
3-----------|
4--9--------|
5--7---8----|
6------6----| repeat 2 x

intro(lead)-faint
1----------------------------------------------|
2---------------------------------15-14-13-12*-|  does rythem part with
3--------5x7x-12^------15-14-13-12-------------|  zeropulse second time
4----5-7----------14-9t------------------------|
5---6------------------------------------------|
6----------------------------------------------|

riffA(verse riff)-both guitars
1-------------------|
2-------------------|
3-------------------|
4-------------5-3-5-|
5-------------5-3-5-| repeat 4x
6-0-0-0-0-0-0-------|
  ...........

riffB(pre chorus)-both guitars
1---------------------------------------------------------------|
2---------------------------------------------------------------|
3--------------------9-9-9-9-9-9-8-8-8-8-8-6-6-6-6-9-9-8-8-6-6*-|
4---------------------------------------------------------------|
5-9-8----------9-8-6--------------------------------------------|
6-----0-0-0-0-0------0-0-0-0-0----------------------------------|

1----------------------------------------------------------------|
2----------------------------------------------------------------|
3------------------------------------9-9-9-9-9-9-8-8-8-8-8-6-6-6-|
4----------------------------------------------------------------|
5-9-8-----------9-8-6--9-8---9-8-6-------------------------------|
6-----0-0-0-0-0--------------------------------------------------|

riffC-both guitars
1---------------------------|
2----------------15-16------|
3----------13-11t------18^--|
4-----12-12--12-------------|
5--5-7----------------------|
6-6-------------------------|

1---------------------------------------------------------|
2---------------------------------------------------------|
3---------------------------------------------------------|
4-5-5-5-5-5-5-5-5-7-7-7-7-7-7-7-8-8-8-8-8-8-3-3-3-3-3-3-3-|
5-5-5-5-5-5-5-5-5-7-7-7-7-7-7-7-8-8-8-8-8-8-3-3-3-3-3-3-3-|
6-5-5-5-5-5-5-5-5-7-7-7-7-7-7-7-8-8-8-8-8-8-3-3-3-3-3-3-3-|

solo-zeropulse
1---------------------------14---16-15^---------------|
2-12-12-12-12-12-12-12-12-13--11----------------------|
3--------------------------------------------16-12*---|
4---------------------------------------12------------|
5------------------------------------------19---------|
6-----------------------------------------------------|

don't know the rest of the solo or song because it's impossible
Tap to rate this tab
 
# A B C D E F G H I J K L M N O P Q R S T U V W X Y Z