Song name
# A B C D E F G H I J K L M N O P Q R S T U V W X Y Z

Misc Unsigned Bands - Cunt Ipes - No Goats tab

-------------------------------------------------------------------------------
			     NO GOATS - Cunt Wipes
-------------------------------------------------------------------------------
Tabbed by:Dream_Disorder
Email:

Tuning:E A D G B E

A few friends of mine are in a band called "Cunt Wipes."  They played their first song 
me and I recorded it, tabbed it and played it.

This tab is a little different than the recording because they changed it a little since 
 It is actually just the chorus that has changed.

Their site:
http://www.myspace.com/cuntwipes

Intro/Verse:
(Go full on the Chorus Effect)
e|---------------------------------------------------------------------------|
B|---------------------------------------------------------------------------|
G|-------0------------0------------4-----------2-----------------------------|
D|-----2---2--------0---0--------0---0-------0---0---------------------------|
A|---2-------2----2-------0----3-------3---3-------3-------------------------|
E|-0------------3------------0-----------0-----------------------------------|
Play that two times.

For the verse play it four times, palm muted, with delay effect.

Chorus:
(Heavy Distortion)
e|---------------------------------------------------------------------------|
B|---------------------------------------------------------------------------|
G|---------------------------------------------------------------------------|
D|-222222222222-555555-5-3-2--------------x2---------------------------------|
A|-222222222222-555555-------5-3-2-------------------------------------------|
E|-000000000000-333333-------------3-----------------------------------------|

Repeat Intro/verse and Chorus

Breakdown:
e|-----0---0----------3---3--------------------------------------------------|
B|-------0---0----------3---3------------------------------------------------|
G|---------------------------------------------------------------------------|
D|-222-----------555---------------x2----------------------------------------|
A|-222-----------555---------------------------------------------------------|
E|-000-----------333---------------------------------------------------------|

Solo (Rhythm Section)
e|----------------------------------------------------------------------------|
B|----------------------------------------------------------------------------|
G|-999999999999-121212121212121212121212-777777777777-101010101010101010101010|
D|-999999999999-121212121212121212121212-777777777777-101010101010101010101010|
A|-777777777777-101010101010101010101010-555555555555-8-8-8-8-8-8-8-8-8-8-8-8-|
E|----------------------------------------------------------------------------|
Repeat Twice

Solo:
e|-------15-19-----------7-10-----------13-17-----------5-8------------------|
B|----17-------17------8------8------15-------15------6-----6----------------|
G|-16-------------16-7----------7-14-------------14-5---------5--------------|
D|---------------------------------------------------------------------------|
A|---------------------------------------------------------------------------|
E|---------------------------------------------------------------------------|

e|-------15-19-----------7-10-----------13-17--------8-7-5-------------------|
B|----17-------17------8------8------15-------15-----------8-6-5-------------|
G|-16-------------16-7----------7-14-------------14--------------7-5---------|
D|---------------------------------------------------------------------------|
A|---------------------------------------------------------------------------|
E|---------------------------------------------------------------------------|
Repeat Chorus Twice and you are done

| /  slide up
| \  slide down
| h  hammer-on
| p  pull-off
| ~  vibrato
| +  harmonic
| x  Mute note
===============================================================================
Tap to rate this tab
# A B C D E F G H I J K L M N O P Q R S T U V W X Y Z