Song name
# A B C D E F G H I J K L M N O P Q R S T U V W X Y Z

Misc Unsigned Bands - Uncooked Children - Christ Puncher tab

"Christ Puncher"- Uncooked Children
Tuning: Drop C:  C G C F A D

Main Riff/Verses (repeat)                  Pre-Chorus
  A*                                          
|----------------------------------------------|----------------------|
|----------------------------------------------|----------------------|
|-----------------8b8pb--------8b8pb-----------|---8------------------|
|--9--9--9--9---------------9------------------|---9------------------|
|----------------------------------------------|----------------------|
|----------------------------------------------|----------------------|
*Chord represents overall tonality 

Chorus (repeat)
   C5                C#5   Bb5   C5  
|-----------------------------------------------------------|
|-----------------------------------------------------------|
|-----------------------------------------------------------|
|--12-12-12-12-12-12-13-13-10-10-12-12-12-12-12-12-12-12----|
|--12-12-12-12-12-12-13-13-10-10-12-12-12-12-12-12-12-12----|
|--12-12-12-12-12-12-13-13-10-10-12-12-12-12-12-12-12-12----|

Part after chorus (repeat)          
     A7*
     **--------------------------------------
|----5------------------------5------5----------|
|--------7------------------------7------7------|
|-----------------------------------------------|
|-----------------------------------------------|
|-----------------------------------------------|
|-----------------------------------------------|
**Let notes ring  
Tap to rate this tab
# A B C D E F G H I J K L M N O P Q R S T U V W X Y Z