Guitaretab - guitar tabs
Song name
# A B C D E F G H I J K L M N O P Q R S T U V W X Y Z

Misc Unsigned Bands - Undetermined - Andrews Song tab

Andrew's Song
Tabbed by: Meaghan Dunk
Posted by Smilestar>3
Tuning: undetermined, written  step flat

Intro
e--------------------------------]Repeat x 2
b--------------------------------]
g-8--8--8--8--8-8--88-8-----]
d-8-8-----8--8----8--8--8~--]
a-6--6--6--5--5--5-------------5-]
e-------------------8--8--8-8--]

Verse

e-------------------------------]
b-------------------------------]
g-8--8--8--8--8-8--88-10~--]
d-8-8-----8--8----8--8-----]
a-6--6--6--5--5--5--------------]
e-------------------8--8--8---]

Pre-Chorus

e-------------------------------------]
b-------------------------------------]
g--8--8-8-10~-8--8-8-10~-8---8--8-10~-]
d---8--8----8---8------8---8-------]
a-6--6----5---5---------------------]
e---------------------8-----8---------]

e-----------]
b-----------] Note: 	To get last on each set of three, pluck with pick
g-----------]		and middle finger.
d-888~-888~-]
a-65-65-]
e-8~6~-]

e--------------]
b--------------]
g--------------]
d-888~-88-8~---]
a-65-6510~-]
e-8~------]

Chorus

e--------------------------------------------------------------]
b--------------------------------------------------------------]
g-8.-8.-888-888----7.7.-777-777----5.-5.-555-555----5.-5.-578-]
d-8.-8.-888-888-x2-7.7.-777-777-x2-5.-5.-555-555-x2-5.-5.-578-]
a-6.-6.-666-666----5.5.-555-555----3.-3.-333-333----3.-3.-356-]
e--------------------------------------------------------------]

e----------------------------]
b----------------------------]
g-8.-8.-888-888-8888-10-8----]
d-8.-8.-888-8888888-10-8-8--]
a-6.-6.-666-666-6666-8--6-8--]
e-------------------------6--]

Intro, Verse, Pre-Chorus, Chorus


Riff - distorted slightly to blend
[ Tab from: http://www.guitaretab.com/m/misc-unsigned-bands/84390.html ]
e--------------------------/-------------------------------]
b--------------------------/-------------------------------]
g--8--8-8-10-8-7-5~-5-8-3~-/-888888-101010101010/13-13-12~-]
d---8--8-------------------/-------------------------------]
a-6--6---------------------/-------------------------------]
e--------------------------/-------------------------------]

e---------------------------/----------------------------------]
b---------------------------/----------------------------------]
g-5~.-5-7~.-7-8~.8-13-13-12-/5~.-5-7~.-7-8~.-8-13-13-15-13-12~-]
d---------------------------/----------------------------------]
a---------------------------/----------------------------------]
e---------------------------/----------------------------------]

e---------------------------------------1616-15~-]
b-131313131313-151515151515-161616161616---------]
g------------------------------------------------]
d------------------------------------------------]
a------------------------------------------------]
e------------------------------------------------]

e-16-15-13-------------------------]
b---------16-15-13-----------------]
g-----------------15-13-12~-10~-8~-]
d----------------------------------]
a----------------------------------]
e----------------------------------]

Intro, Verse

Outro

e----------------]
b--------9~-9-8~-]
g--7--7--7~-7-7~-]
d---8--8-8~-8-8~-]
a-6--6--6~-6-6~-]
e----------------]

Wow that took a while, my first tab but not her first song. I'll post those later. She's 
for a band to play around with but she's young so needs practice, especially with 
and comfiness in crowds. Any suggestions can be sent to meaghan_jensen30@hotmail.com

~ : ring out naturally
. : stop the chord/note quickly after playing
~. : let it ring out for a moment then stop it

( I am sure there are terms for that but Meaghan hasn't specified anything and I am not 
musically-termed-bright)
Related for Undetermined - Andrews Song tab