Song name
# A B C D E F G H I J K L M N O P Q R S T U V W X Y Z

Misc Unsigned Bands - Winters Paradox - Tell Me tab

Help us improve GuitareTab! Take a short survey!
Tell Me
By Winters Paradox

Rhythm Guitar Part Only

INTRO

|----------|----------|----------|----------|         
|----------|----------|----------|----------| 
|------2---|------5---|----------|------7---|            X2
|----2---2-|----5---5-|------5---|----7---7-|
|--2-------|--3-------|----5---5-|--5-------|
|----------|----------|--3-------|----------|

CHORUS

|-----------|-----------|-----------|-----------|
|-----------|-----------|-----------|-----------|
|-----------|-----------|-----------|-----------|         X2
|--22222222-|--55555555-|-----------|--77777777-|
|--22222222-|--33333333-|--55555555-|--55555555-|
|-----------|-----------|--33333333-|-----------|

POST CHORUS

|-----------|-----------|-----------|------------|
|-----------|-----------|-----------|------------|
|-----------|-----------|-----------|------------|       X2
|--99999999-|--55555555-|-----------|--5---5-----|
|--77777777-|--33333333-|--55555555-|--3-5-3-5---|
|-----------|-----------|--33333333-|----3---3---|

Verse 1

|-----------|-----------|-----------|-----------|
|-----------|-----------|-----------|-----------|
|-----------|-----------|-----------|-----------|       X4
|---2-2-2-2-|---5-5-5-5-|-----------|---7-7-7-7-|
|--2-2-2-2--|--3-3-3-3--|---5-5-5-5-|--5-5-5-5--|
|-----------|-----------|--3-3-3-3--|-----------|

VERSE 2

|------------|-----------|-----------|-----------|
|------------|-----------|-----------|-----------|
|------------|-----------|-----------|-----------|
|---2-----2--|---5-5-5-5-|-----------|---7-7-7-7-|        X4
|--2-2---2-2-|--3-3-3-3--|---5-5-5-5-|--5-5-5-5--|
|------------|-----------|--3-3-3-3--|-----------|

OUTRO

|-----------|-----------|-----------|------------|
|-----------|-----------|-----------|------------|
|-----------|-----------|-----------|------------| 
|--99999999-|--55555555-|-----------|--5---5-----|
|--77777777-|--33333333-|--55555555-|--3-5-3-5---|
|-----------|-----------|--33333333-|----3---3---|

|-------|-------|---------|
|-------|-------|---------|
|-------|-------|---------|
|--999--|--777--|--5-3----|    END
|--777--|--555--|--3-1-5--|
|-------|-------|------3--|


ORDER

-INTRO
-CHORUS
-POST CHORUS
-VERSE 1
-CHORUS
-POST CHORUS
-VERSE 2
-CHORUS
-OUTRO

Related for Winters Paradox - Tell Me tab