Guitaretab - guitar tabs
Song name
# A B C D E F G H I J K L M N O P Q R S T U V W X Y Z

Misc Unsigned Bands - Madflow - Sarong Banggi tab

elow guys! 1st tab ko 2...
mga 95% na tama to..try nyu..nilagyan ko na
ng chords un solo pra masmpadali ang pgkuha nyo ng timing...
indi maxadong accurate ung solo nyan..pakitry nyo n lng
pakirate din poh!thnx
txt nyo n lng ako kng my question >> 09167940937
add nyo ko sa frndster>> wackyboy2006@yahoo.com

tunning: standard
chord patern: 
             Intro- Am, E, Am
             verse- Am, Dm, E, Am
             chorus- Am, Dm, Dm, Am,
                     Am, Dm, Am, E, Am


Intro
	    Am           E           Am (tig-iisang strum lng)
e-----------------------------------------|
B------------------10-13p12-10-9--12-10---|
G-----9-9h10-9--9-------------------------|
D--12-------------------------------------|
A-----------------------------------------|
E-----------------------------------------|


          Am         Dm                E                      Am  
e-----------------------------------------------------------------|
B----13---------13---------12------------------------12-13-12-10--| 
G------14---------14---------14-13--14----------13-14-------------|
D--14----14---14----16---14-----------14---14-16------------------|
A-----------------------------------------------------------------|
E-----------------------------------------------------------------|


         Am          Dm            Am          E           Am
e---------------------------------------------------------------|
B----13----------------------------------10-13p12-10-9--12-10---|
G------14------14-12-10------9-9h10-9--9------------------------|
D--14----14--12-----------12------------------------------------|
A---------------------------------------------------------------|
E---------------------------------------------------------------|


           Am         Dm
sarong banggi, sa igdaan
         E                     Am           (pause)
nakadangog ako, nin huni nin sarong gamgam...
         Am         Dm
sa lubha ko, katurogan
        Am           E         Am   (pause)
Bako kundi simong boses iyo palan...



	          Am                   Dm   Dm                                           Am
e-----------------121212121212-12-10-9-10-----------------------------------------------------|
B------------12-13-----------------------------------12-13-13s15-151515151515-15-13-12-12h13--|
G-------13-14-----------------------------------13-14-----------------------------------------|
D--14-15-----------------------------------14-15----------------------------------------------|
A---------------------------------------------------------------------------------------------|
E---------------------------------------------------------------------------------------------|

   Am             Am                    Dm          Am           E            Am
e-----------------121212121212-12-17-15-13--13-11--------------------------------|
B------------12-13-------------------------------15-13--16-15-13-12--15-13-12-10-|
G-------13-14--------------------------------------------------------------------|
D--14-15-------------------------------------------------------------------------|
A--------------------------------------------------------------------------------|
E--------------------------------------------------------------------------------|

[ Tab from: http://www.guitaretab.com/m/misc-unsigned-bands/84426.html ]
           Am         Dm
sarong banggi, sa igdaan
         E                     Am           (pause)
nakadangog ako, nin huni nin sarong gamgam...
         Am         Dm
sa lubha ko, katurogan
        Am           E         Am   (pause)
Bako kundi simong boses iyo palan...

              Am                        Dm
dagos ako bangon si sakuyang mata iminuklat..
                Dm               Am
kadtong kadikluman ako nangalagkalag
                Am                Dm
si sakong pahiling pasiging sa itaas
          Am           E         Am    
simong lawod nahiling kong maliwanag...


          Am         Dm                E                      Am
e-----------------------------------------------------------------|
B----13---------13---------12------------------------12-13-12-10--|
G------14---------14---------14-13--14----------13-14-------------|
D--14----14---14----16---14-----------14---14-16------------------|
A-----------------------------------------------------------------|
E-----------------------------------------------------------------|


         Am          Dm            Am          E           Am
e---------------------------------------------------------------|
B----13----------------------------------10-13p12-10-9--12-10---|
G------14------14-12-10------9-9h10-9--9------------------------|
D--14----14--12-----------12------------------------------------|
A---------------------------------------------------------------|
E---------------------------------------------------------------|


	          Am                   Dm   Dm                                           Am
e-----------------121212121212-12-10-9-10-----------------------------------------------------|
B------------12-13-----------------------------------12-13-13s15-151515151515-15-13-12-12h13--|
G-------13-14-----------------------------------13-14-----------------------------------------|
D--14-15-----------------------------------14-15----------------------------------------------|
A---------------------------------------------------------------------------------------------|
E---------------------------------------------------------------------------------------------|

   Am             Am                    Dm          Am           E            Am
e-----------------121212121212-12-17-15-13--13-11--------------------------------|
B------------12-13-------------------------------15-13--16-15-13-12--15-13-12-10-|
G-------13-14--------------------------------------------------------------------|
D--14-15-------------------------------------------------------------------------|
A--------------------------------------------------------------------------------|
E--------------------------------------------------------------------------------|




           Am         Dm
sarong banggi, sa igdaan
         E                     Am           (pause)
nakadangog ako, nin huni nin sarong gamgam...
         Am         Dm
sa lubha ko, katurogan
        Am           E         Am   (pause)
Bako kundi simong boses iyo palan...

              Am                        Dm
dagos ako bangon si sakuyang mata iminuklat..
                Dm               Am
kadtong kadikluman ako nangalagkalag
                Am                Dm
si sakong pahiling pasiging sa itaas
          Am           E         Am    
simong lawod nahiling kong maliwanag...


(sa part n to, tg-iisang strum n lng.)

	  Am 
simong lawod 
	   E
nahiling kong 

        Am
maliwanag...

	  Am 
simong lawod 
	   E
nahiling kong 

        Am
maliwanag...


<----end----->
un lng po...salamat......
Related for Madflow - Sarong Banggi tab
Advertisement will be closed in 10 seconds