Guitaretab - guitar tabs
Song name
# A B C D E F G H I J K L M N O P Q R S T U V W X Y Z

Misc Unsigned Bands - The 11th Commandment - Time To Rock tab

The 11th Commandment-Time to Rock
By:leftyguitar
Yes, This Needs Distortion


Rhythm:
Play This Very Quickly 

E|---------0--2--3--2--0--0--0-----| Repeat 4x
B|---------2--3--3--3--2--2--2-----|
G|---------2--2--2--2--2--2--2-----|
D|---------2--0--0--0--2--2--2-----|
A|---------------------------------|
E|---------------------------------|


Chorus(2nd Rhythm):

E|------0----2----------0----2----------0----2----| 
B|------2----3----------2----3----------2----3----|
G|------2----2----------2----2----------2----2----|
D|------2----0----------2----0----------2----0----|
A|------------------------------------------------|
E|------------------------------------------------|


Rhythm:
Play This Very Quickly
[ Tab from: http://www.guitaretab.com/m/misc-unsigned-bands/84444.html ]
E|-------0--2--3--2--0--0--0-------| Repeat 4x
B|-------2--3--3--3--2--2--2-------|
G|-------2--2--2--2--2--2--2-------|
D|-------2--0--0--0--2--2--2-------|
A|---------------------------------|
E|---------------------------------|





Lead/Solo:
Play Rhythm During Lead/Solo


E|------------------------------------------------|
B|----7--9b-7--9b-7--9b-7--9b-7--12-----10-9--7---|
G|------------------------------------------------|
D|------------------------------------------------|
A|------------------------------------------------|
E|------------------------------------------------|


Chorus(Rhythm):

E|-------0----2----------0----2----------0----2-----x---||    
B|-------2----3----------2----3----------2----3-----x---||
G|-------2----2----------2----2----------2----2-----x---||
D|-------2----0----------2----0----------2----0-----x---||
A|------------------------------------------------------||
E|------------------------------------------------------||

End
Related for The 11th Commandment - Time To Rock tab
Advertisement will be closed in 10 seconds