Guitaretab - guitar tabs
Song name
# A B C D E F G H I J K L M N O P Q R S T U V W X Y Z

Misc Unsigned Bands - Straterra - Cowerdly Soilder tab

Band:Sraterra
song:cowerd soilder
album:bodog battle of the bands
tuning:Dadgbe
[ Tab from: http://www.guitaretab.com/m/misc-unsigned-bands/84470.html ]
                                                  X2
e---------------------------------------|--------------------------------------|
b---------------------------------------|--------------------------------------|
g---------------------------------------|--------------------------------------|
d---------------------------------------|-0----- 7-----5-----------------------|
a------78-78--54----78---54-----|-0------7------5------------------------------|
D--oo---0----------77---55--------|-0---- -7------5----------------------------|

e----------------------------------------------------|
b----------------------------------------------------|
g----------------------------------------------------|
d-----------------------------7---12---5--7/8\7------|
a-----7--7--7--7--7-7/8--7-----x---5---x/x\x---------|
D-00--0--0--0--0---------7---10---5--5/6\5-----------|
-
Related for Straterra - Cowerdly Soilder tab
Advertisement will be closed in 10 seconds