Song name
# A B C D E F G H I J K L M N O P Q R S T U V W X Y Z

Misc Unsigned Bands - The 11th Commandment - Godchild tab

Help us improve GuitareTab! Take a short survey!
The 11th Commandment-Godchild
By:leftyguitar
Yes this needs distortion
These are in order

Rhythm:


E|---------------2------2----2----------|Let the last chord ring
B|-----2------3--2---3--2----2--2-------|Repeat 4x
G|-----2------2--0---2--0----0--2-------|
D|-----2------0--0---0--0----0--2-------|
A|-----0------------------------0-------|
E|--------------------------------------|

Chorus(Rhythm):


E|------------------------------------------------|
B|--------2----3----2---------2----3----2---------|
G|--------2----2----2---------2----2----2---------|
D|--------2----0----2---------2----0----2---------|
A|--------0---------0---------0---------0---------|
E|------------------------------------------------|


--------------------------###IMPORTANT###-----------------------------------

Lead/Solo:
Tap in this solo:
hold down 14 and tap with 17th fret on b string,
hold down 11 and tap with 14th fret on e string,
hold down 12 and tap with 15th fret on e string,
hold down 13 and tap with 16th fret on e string,
hold down 14 and tap with 17th fret on e string,then slide all the way down to the 1st fret and play chorus.

Play chorus during solo
--------------------------###IMPORTANT###-----------------------------------


Rhythm:


E|-----------------------------------------|
B|----2------3--3---3--3----3--2---2-------|
G|----2------2--2---2--2----2--2---2-------|
D|----2------0--0---0--0----0--2---2-------|
A|----0------------------------0---0-------|
E|-----------------------------------------|

Chorus(Rhythm):


E|---------------------------||
B|----2----3----2/12-----x---||
G|----2----2----2/12-----x---||
D|----2----0----2/12-----x---||
A|----0---------0-0----------||
E|---------------------------||

END & enjoy 
Related for The 11th Commandment - Godchild tab