Song name
# A B C D E F G H I J K L M N O P Q R S T U V W X Y Z

Misc Unsigned Bands - Soberkiss - I Dont Know tab

|------------------------------------------------------------------------|
|------------------------------------------------------------------------|
|--------5-------5---------7-------7---------3-------3-------------------|
|------5---5---5---5-----7---7---7---7-----3---3---3---3----------------|]x2
|----3-------3---------5-------5---------1-------1-----------------------|
|------------------------------------------------------------------------|

|------------------------------------------------------------------------|
|------------------------------------------------------------------------|
|--------5---------7---------3-------3-----------------------------------|
|------5---5-----7---7-----3---3---3---3--------------------------------|]x2
|----3---------5---------1-------1---------------------------------------|
|------------------------------------------------------------------------|

|------------------------------------------------------------------------|
|------------------------------------------------------------------------|
|--------5-------7-------3-------3------------5-------7-------3-------3--|
|------5-------7-------3---3---3---3--------5-------7-------3---3---3---3|
|----3-------5-------1-------1------------3-------5-------1-------1------|
|------------------------------------------------------------------------|
Tap to rate this tab
# A B C D E F G H I J K L M N O P Q R S T U V W X Y Z