Song name
# A B C D E F G H I J K L M N O P Q R S T U V W X Y Z

Misc Unsigned Bands - The Quality Meats - All The Way tab

The Quality Meats

All The Way

The Quality Meats EP


Standard

-----------------------------------------------------|
--------------------------------------------^-^------|
--------------------------------------------8-8------|
------7-7--------------------------------------------|
-----------x8-------7-5-----7-5----7-5---------------|
-5-5-------------5------5-5-----5--------------------|

Verse

-----------------------------------------------------|
-----------------------------------------------------|
-----------------------------------------------------|
--5-5-5-3---5-5-5-3---5-5-5-3------------------------|
----------3---------3---------3--3-4-5---------------|
-----------------------------------------------------|

Chorus


--------------------9-9-9-9--------------------------|
---7-7-x-9-7-7-x-9--9-9-9-9--------------------------|
---7-7-x-9-7-7-x-9-----------------------------------|
-----------------------------------------------------|
-----------------------------------------------------|
-----------------------------------------------------|

Bridge


-----------------------------------------------------|
-----------------------------------------------------|
----7--7-5-7-5---------------7-5-----7---------------|
---------------5-7-----------------------5~-----7-5--|
-------------------7-6-5---------7-6---6--------6----|
-------------------------8------------------8-8------|

Solo

Chorus x2

:)
Tap to rate this tab
# A B C D E F G H I J K L M N O P Q R S T U V W X Y Z