Song name
# A B C D E F G H I J K L M N O P Q R S T U V W X Y Z

Misc Unsigned Bands - Union Slaying Assassins - Doana tab

This is a song written because the guitarist hates the new techno music. The song starts 
sounding like techno due to flange or some effect.

CGCFAD - Tuning

Guitar 1 lead
Guitar 2 rhythm

guitar 1
----------------------------------------------------|
--12--12--12----------------------------------------|
--------------10-10--10--12--12--12-----------------| x10
------------------------------------12--12-12-12-12-|
----------------------------------------------------|
----------------------------------------------------|
Guitar 2
----------------------------------------------|
----------------------------------------------|
----------------------------------------------| x9 (starts 2nd time)
---5--5--5------------------------------------|
---3--3--3----------5--5--5--0--0-0-0-0-------|
------------4-4--4--5--5--5--0--0-0-0-0-------|
Tap to rate this tab
# A B C D E F G H I J K L M N O P Q R S T U V W X Y Z