Song name
# A B C D E F G H I J K L M N O P Q R S T U V W X Y Z

Misc Unsigned Bands - Punish And Torment - In Hell I Bleed tab

Artist:Punish And Torment
song:In Hell I Bleed
Album:Hell Awaits

legend:
b=bend string
s=slide to string
t=finger tap
*=harmonic
x=mute string

intro-zeropulse
1-----------------------------
2-----------------------------
3-----------------------2-----
4---3----4----x-------2---x---
5--0-2--0-2--x-2-----3-----0--
6-0----0----0----3--0-------x-

1-----------------------------
2-------------------12--------
3-------------3-------16bs13*-
4-----x-----2--0-x------------
5--3-4--2--0------------------
6-0-------4------------------- repeat 6x

intro solo-faint
1--------------12-13-12-14-12-12-12-14-
2----6b12bs17x-------------------------
3-13B----------------------------------
4--------------------------------------
5--------------------------------------
6--------------------------------------

1-5-10-15t-5-10-15t-5-10-15t-5-10-15t-5-10-15t-5-10-15t-5-10-15t-
2----------------------------------------------------------------
3----------------------------------------------------------------
4----------------------------------------------------------------
5----------------------------------------------------------------
6----------------------------------------------------------------

1--------------------------------------------------
2-----------------16-15-14-13-12-12-12-11bs13*-----
3-------17-18s19b----------------------------------
4---12-13-------------------------------------7*---
5-16-----------------------------------------------
6--------------------------------------------------

verse riff-both guitars
1-----------------------
2-----------------------
3-----------------------
4----------8-10-7-------
5-------7-8-------8-7-5-
6-0-0-0----------------- repeat 4x
  ....

after the second time

verse riff-zeropulse
1-----------------
2-----------------
3-5-x-x-x-x-x-x-x-
4-4-5-5-5-3-3-5-5-
5-x-x-x-5-5-5-3-3-
6-7-7-7-9-9-7-5-5-

pre chorus-faint
1---------------------14-15-----------------------------------14-17-
2-----------------18-14---13-16---------------------------18-20-----
3-------------13-17-----------12-11-------------------21-13---------
4---------16-16-------------------10-12-----------16-18-------------
5-----14-12---------------------------13-16---16-14-----------------
6-10-13-----------------------------------17-15---------------------

1------------------------
2--13-14-----------------
3------17-16-------------
4----------20-15---------
5--------------14-17-----  repeat 2x
6------------------18-14-

pre-chorus-zeropulse
1-------------------------------------------------------------
2-------------------------------------------------------------
3-------------------------------------------------------------
4-8-8-8-8-8-6-6-6-6-6-5-5-5-5-5-7-7-7-7-7-7-7-7-9-9-9-9-9-9-9-
5-8-8-8-8-8-6-6-6-6-6-5-5-5-5-5-7-7-7-7-7-7-7-7-9-9-9-9-9-9-9-
6-8-8-8-8-8-6-6-6-6-6-5-5-5-5-5-7-7-7-7-7-7-7-7-9-9-9-9-9-9-9-

1--------------------------------------------------------------------
2--------------------------------------------------------------------
3--------------------------------------------------------------------
4-10-10-10-10-10-10-10-10-12-12-12-8-8-8-8-5-5-5-5-x-x-x-x-x-x-10-10-
5-10-10-10-10-10-10-10-10-12-12-12-8-8-8-8-5-5-5-5-7-7-7-7-7-7-10-10-
6-10-10-10-10-10-10-10-10-12-12-12-8-8-8-8-5-5-5-5-7-7-7-7-7-7-10-10-

chorus-both guitars
1-----------------------
2-----------------------
3-------------19-20-----
4---------16-15---17-16-
5-7-7-5-5---------------
6-7-7-5-5--------------- repeat 4x

solo(rythem is pre-chorus rythem)-zeropulse
1----------16-15----------------
2-12-13s14b-----20-17-18----17b-
3-----------------------19s21---
4-------------------------------
5-------------------------------
6-------------------------------

1---------------------13--14---9-16*-
2---------------20-21b---13-14b------
3---------11-11*---------------------
4-14-14-13---------------------------
5------------------------------------
6------------------------------------

guitar solo-both guitars
1-----------------------------17-20-
2-------------------------13-16-----
3-------------16-19---14-17---------
4---------20-21---20-16-------------
5-----17-18-------------------------
6-10-14-----------------------------

1---------------------11-20-----------------------------------19-20-
2-----------------13-15---21-19---------------------------15-19-----
3-------------18-15-----------15-16-------------------20-14---------
4---------13-19-------------------13-17-----------13-14-------------
5-----16-17---------------------------10-14---16-18-----------------
6-14-12-----------------------------------21-24---------------------

1-------------------------------------18-13-----------------------
2-14-15---------------------------15-18---14-17-------------------
3-----17-16-------------------17-11-----------17-14---------------
4---------13-17-----------15-12-------------------16-18-----------
5-------------14-16---16-18---------------------------10-19-------
6-----------------10-21------------------------------------20-13*-

guitar solo-faint
1---------------17bs13*-
2-17bs13*s15b-----------
3------------(16b)------
4-----------------------
5-----------------------
6-----------------------

guitar solo-zeropulse
1-12-13-12-12-12-12-12-12-17-16-15-4-3-9-12-20-
2----------------------------------------------
3----------------------------------------------
4----------------------------------------------
5----------------------------------------------
6----------------------------------------------

1------------
2------------
3-------17b~-
4------------
5------------
6-0-0-0------
 .....


























Tap to rate this tab
# A B C D E F G H I J K L M N O P Q R S T U V W X Y Z