Song name
# A B C D E F G H I J K L M N O P Q R S T U V W X Y Z

Misc Unsigned Bands - Slime 69 - Youre Gone tab

Tabed by: George

E----------------------------------------------------|
A-9--9--9--9---12-12-12-12--7-7-7-7--55555555--------|
D-0--0--0--0---0--0--0--0---0-0-0-0--00000000--------| x2
G-11-11-11-11--14-14-14-14--9-9-9-9--77777777--------|
B----------------------------------------------------|
E----------------------------------------------------|

E---------------------------------------------------------|
A-9999999------12121212121212--7777777-55555555-----------|
D-0000000------0000000---------0000000-00000000-----------| x2
G-111111111111-14141414141414--9999999-77777777-----------|(same as top but in a rhythm)
B---------------------------------------------------------|
E---------------------------------------------------------|

E-----55-77777-----------|
A--55-77-99999-----------|
D--77-77-99999-----------| x2
G--77--------------------|
B------------------------|
E------------------------|

E-------------55555555---7777777---3333333----------|
A--55555555---77777777---9999999---5555555----------|
D--77777777-----------------------------------------|
G---------------------------------------------------|
B---------------------------------------------------|
E---------------------------------------------------|
Pm..................................................

E-------------55555555---77777777---33333333-----------|
A--55555555---77777777---99999999---55555555-----------|
D--77777777--------------------------------------------|
G------------------------------------------------------|
B------------------------------------------------------|
E------------------------------------------------------|
PM... .. ..   .. .. ..   .. .. ..   .. .. ..

E-------------55555555---7777777---3333333----------|
A--55555555---77777777---9999999---5555555----------|
D--77777777-----------------------------------------|
G---------------------------------------------------|
B---------------------------------------------------|
E---------------------------------------------------|
Pm..................................................

E-------------5-5-5---7-7-7----3-3-3-----------------|
A--5-5-5-------7-7-----9-9------5-5------------------|
D---7-7----------------------------------------------|
G----------------------------------------------------| x2 and on last note let ring
B----------------------------------------------------|
E----------------------------------------------------|


E-------------55555555---7777777---3333333----------|
A--55555555---77777777---9999999---5555555----------|
D--77777777-----------------------------------------|
G---------------------------------------------------|
B---------------------------------------------------|
E---------------------------------------------------|

E---------------------------------------------------------|
A-9999999------12121212121212--7777777-55555555-----------|
D-0000000------0000000---------0000000-00000000-----------| x2
G-111111111111-14141414141414--9999999-77777777-----------|
B---------------------------------------------------------|
E---------------------------------------------------------|

E------------------|
A-5~-5----5~-------|
D-0~--0---0~-------|
G-7~---7--7~-------|


Lisen to the song on myspace search SliMe 69
Tap to rate this tab
# A B C D E F G H I J K L M N O P Q R S T U V W X Y Z