Song name
# A B C D E F G H I J K L M N O P Q R S T U V W X Y Z

Misc Unsigned Bands - Sbbp - Skinless Man tab

Title: The skinless man

Tuning: Standard

Album: SBBP, Track #2

Artist: SBBP


Intro: Guitar 1 (Jayson)
--------------------------------------------------------|
--------------------------------------------------------|
--------------------------------------------------------|play 2 times
--------------------------------------------------------|
--0-0-14-0-0-15-0-0-17-0-0-15-0-0-14--------------------|
--------------------------------------------------------|

---------------------------------------------------------|
---------------------------------------------------------|
---------------------------------------------------------|Play 1 time
---------------------------------------------------------|
--0-0-14-0-0-17-15-14-0-15-14-0-15-14-0------------------|
---------------------------------------------------------|

Both guitars
--------------------------------------------------------|
--------------------------------------------------------|
--------------------------------------------------------|
--------------------------------------------------------|Play 2 tiimes
-2-3-4-5-2-2-3--2-2-3--2-2-3--2-3-4-5-------------------|
---------0-0-1--0-0-1--0-0-1----------------------------|

Verse One: Play much faster....use ulternate picking. Both guitars
--------------------------------------------------------|
--------------------------------------------------------|
--------------------------------------------------------|
--------------------------------------------------------|Play 5 tiimes
-2-3-4-2-3-4-2-2-2-3--2-2-2-3--2-2-2-3--2-3-4-2-3-4-----|
-------------0-0-0-1- 0-0-0-1- 0-0-0-1------------------|


Guitar Two (tyler) Chourus:
--------------------------------------------------------|
--------------------------------------------------------|
--------------------------------------------------------|
--------------------------------------------------------|Play 1 time then pause until 
two is done...then repeat 3 times
-4-4-2--------------------------------------------------|
-2-2-0--------------------------------------------------|


Guitar One (Jayson) in intermission
--------------------------------------------------------|
--------------------------------------------------------|
--------------------------------------------------------|
--------------------------------------------------------|Play three times
-9-9-9-8-8-8-7-7-7-6------------------------------------|
--------------------------------------------------------|

Both guitars
--------------------------------------------------------|
--------------------------------------------------------|
--------------------------------------------------------|
--------------------------------------------------------|Play 2 tiimes
-2-3-4-5-2-2-3--2-2-3--2-2-3--2-3-4-5-------------------|
---------0-0-1--0-0-1--0-0-1----------------------------|


Verse Two: Play much faster....use ulternate picking. Both guitars
--------------------------------------------------------|
--------------------------------------------------------|
--------------------------------------------------------|
--------------------------------------------------------|Play 5 tiimes
-2-3-4-2-3-4-2-2-2-3--2-2-2-3--2-2-2-3--2-3-4-2-3-4-----|
-------------0-0-0-1- 0-0-0-1- 0-0-0-1------------------|

Guitar Two (tyler) Chourus:
--------------------------------------------------------|
--------------------------------------------------------|
--------------------------------------------------------|
--------------------------------------------------------|Play 1 time then pause until 
two is done...then repeat 3 times
-4-4-2--------------------------------------------------|
-2-2-0--------------------------------------------------|


Guitar One (Jayson) in intermission
--------------------------------------------------------|
--------------------------------------------------------|
--------------------------------------------------------|
--------------------------------------------------------|Play three times
-9-9-9-8-8-8-7-7-7-6------------------------------------|
--------------------------------------------------------|

Both guitars
--------------------------------------------------------|
--------------------------------------------------------|
--------------------------------------------------------|
--------------------------------------------------------|Play 2 tiimes
-2-3-4-5-2-2-3--2-2-3--2-2-3--2-3-4-5-------------------|
---------0-0-1--0-0-1--0-0-1----------------------------|

Verse Two: Play much faster....use ulternate picking. Both guitars
--------------------------------------------------------|
--------------------------------------------------------|
--------------------------------------------------------|
--------------------------------------------------------|Play 5 tiimes
-2-3-4-2-3-4-2-2-2-3--2-2-2-3--2-2-2-3--2-3-4-2-3-4-----|
-------------0-0-0-1- 0-0-0-1- 0-0-0-1------------------|

Guitar Two: Tyler
---------------------------------------------------------|
---------------------------------------------------------|
---------------------------------------------------------|
-----------------3-4-3-------------0-0-------------------|Play while guitar one plays solo
-----5-4-3------------------5-4-3--0-2-------------------|
-0-0-------0-0----------0-0------------------------------|

Jayson Solo

--------------------------------------------------------|
--12-12-12-12-15-16-12-12-12-12-15-16--15-12------------|
----------------------------------------------15-12-----|
--------------------------------------------------------|
--------------------------------------------------------|
--------------------------------------------------------|

--------------------------------------------------------|
--------------------------------------------------------|
--12-12-12-12-15-16-12-12-12-12-15-16--15-12------------|
----------------------------------------------15-12-----|
--------------------------------------------------------|
--------------------------------------------------------|

-----------15WHAPPYBAR----------------------------------|
--12-12-15----------------------------------------------|
--------------------------------------------------------|play two times and fade out
--------------------------------------------------------|
--------------------------------------------------------|
--------------------------------------------------------|
Tap to rate this tab
 
# A B C D E F G H I J K L M N O P Q R S T U V W X Y Z