Song name
# A B C D E F G H I J K L M N O P Q R S T U V W X Y Z

Misc Unsigned Bands - The Betrayed - The Darkest Shadows tab

The Darkest Shadows

 



Guitar 1: Bill Casey

Guitar 2: Mike McHoul or Bill Sandland



 

 

INTRO:


 

[G1]

E-------8---------------8-----------|

B---------------8---------8----8----|

G----10---10-10---10-10-----10---10-| 2x

D--0--------------------------------|

A-----------------------------------|

E-----------------------------------|


 

[G1] (Strum pattern 1, 1234)                          ]

E--------------------------------------------------|  |

B--------------------------------------------------|  |

G--10-10101010-10-10101010-10-10101010-10-10101010-|  |

D---0--0-0-0-0--0--0-0-0-0--0--0-0-0-0--0--0-0-0-0-|  |

A--------------------------------------------------|  |

E--------------------------------------------------|  |

                                                      |

[G1] (Strum pattern 1, 1234)                          |

E---------------0--0-0-0-0--------------0--0-0-0-0-|  |

B---------------x--x-x-x-x--------------x--x-x-x-x-|  |

G--10-10101010-10-10101010-10-10101010-10-10101010-|  |

D---8--8-8-8-8--8--8-8-8-8--8--8-8-8-8--8--8-8-8-8-|  |

A--------------------------------------------------|  |

E--------------------------------------------------|  |

                                                      | After playing once,

[G1] (Strum pattern 1, 1234)                          | repeat once. Instead

E--0-0000-0-0000-0-0000-0-0000-|                      | of playing the 9/7 part

B--x-xxxx-x-xxxx-x-xxxx-x-xxxx-|                      | play the part below it


G--9-9999-9-9999-7-7777-7-7777-|                      | (on second time)

D--7-7777-7-7777-5-5555-5-5555-|                      |

A------------------------------|                      |

E------------------------------|                      ]


 

[G1] (Strum pattern 1, 1234) 

[Play this on second time around]


 

E--0-0000-0-0000-0-0000-0-0000-0-0000-0-0000-0-0000-0-0000-|

B--x-xxxx-x-xxxx-x-xxxx-x-xxxx-x-xxxx-x-xxxx-x-xxxx-x-xxxx-|

G--9-9999-9-9999-7-7777-7-7777-5-5555-5-5555-4-4444-4-4444-|

D--7-7777-7-7777-5-5555-5-5555-3-3333-3-3333-2-2222-2-2222-|

A----------------------------------------------------------|

E----------------------------------------------------------|



 

[Guitar 2 on it's way!]
Tap to rate this tab
# A B C D E F G H I J K L M N O P Q R S T U V W X Y Z