Song name
# A B C D E F G H I J K L M N O P Q R S T U V W X Y Z

Misc Unsigned Bands - Shoemonkey - On The Pond tab

-------------------------------------------------------------------------
SONG NAME/On The Pond - Band Name/Shoemonkey
-------------------------------------------------------------------------------
Tabbed by: Wasabijon
Email: Jon_taylor90@hotmail.com

Hi this is my first tab of one of the first songs I wrote, I formed a band to play some 
my his music and we are currently learning some of my songs. So please check out our 
www.myspace.com/angusnjon

I am also am in another band which I play drums for called wasabi this check out www.mysace.com/wasabiok!!!!!

Anyway this is my first tab so some bits may be wrong especially rhythm but you get the idea!!

Its an easy song to play but very catchy----

ENJOY

Tuning: Standard  EADGBE

Intro

Gtr 1 - slowly pushing resonance pedal down whilst playing this!
Gtr 1  Distortion
e|------------------------------------------------------------------------|
B|------------------------------------------------------------------------|
G|-----------------12-14b-12-14b-12------------------12-14b-12-14b-12-----|
D|14--12-14--12-14------------------14--12-14--12-14----------------------|
A|------------------------------------------------------------------------|
E|------------------------------------------------------------------------| \
x4   (listen to rhythm to make sure www.mysace.com/angusnjon) x4

Gtr 2  Whilst using tremolo effect, get feedback off amp and experiment with different 
by changing gain and moving the guitar etc.

Chorus

Gtr 1  Distortion
e|---------------------------------------------------------------------|
B|---------------------------------------------------------------------|
G|-----------------12-14b-12-14b-12------------------12-14b-12-14b-12--|
D|14--12-14--12-14------------------14--12-14--12-14-------------------|
A|---------------------------------------------------------------------|
E|---------------------------------------------------------------------|  x5 and a half I think its a random number
Gtr 2 - Distortion

e|----------------------------------------------------------------------|
B|----------------------------------------------------------------------|
G|9---9-9-9-9------------------------9---9-9-9-9------------------------|
D|9---9-9-9-9-9---12-----14-14-------9---9-9-9-9-9---12-----14-14-------|
A|7---7-7-7-7-9---12-----14-14-------7---7-7-7-7-9---12-----14-14-------|
E|------------7---10-----12-14-------------------7---10-----12-14-------| x5 and a half random number of bars

Verse 1

Gtr 1  Phaser effect
Gtr 2  Same clean quieter
e|----------------------------------------------------------------------|
B|----------------------------------------------------------------------|
G|-----------------------------------------------7-7-7-7-7-7------------|
D|-9---9-9-9-5-5---7-7-7-7-7-7---9---9-9-9-5-5---7-7-7-7-7-7------------|
A|-9---9-9-9-5-5---7-7-7-7-7-7---9---9-9-9-5-5---5-5-5-5-5-5------------|
E|-7---77-7-3-3---5-5-5-5-5-5---7---77-7-3-3--------------------------| x 4

Chorus

Same 5 and a half time again


Bridge 1  Blues type thing!!

Gtr 1  Clean delay effect as required!
7/4 Time Signiture!!!!

e|-------------------------------------------------------------------------|
B|-------------------------------------------------------------------------|
G|------------------------------------7-9-7---------7-9-7------------------|
D|--------7-9-7---------7-9-7---9-7-9---------9-7-9---------------7-9-7----|
A|--9-7-9---------9-7-9-------7-------------7---------------9-7-9----------|
E|7-------------7-----------------------------------------7----------------|

e|-----------------------------------------------------------------------|
B|-----------------------------------------------------------------------|
G|------------------------9-11-9---------7-9-7---------------------------|
D|--------7-9-7---11-9-11----------9-7-9---------------7-9-7-------------|
A|--9-7-9-------9----------------7---------------9-7-9-------9~----------|
E|7--------------------------------------------7-------------------------|

Gtr 2  When guitar plays vibrato(~) on 9 play this distorted

e|----------------------|
B|----------------------|
G|11-11-11-11-11-11-11--|
D|11-11-11-11-11-11-11--|
A|-9--9--9--9--9--9--9--|
E|----------------------|

Verse  same as before

Bridge 2

Gtr 1 & 2 Play same thing, both distorted

e|----------------------------------------------------------------------|
B|----------------------------------------------------------------------|
G|----------------------------------------7-----------------------------|
D|-5---5-5-5-7----9-9-9-9-9-9---5---3-3-3-7----5-5-5-5-5-5--------------|
A|-5---5-5-5-7----9-9-9-9-9-9---5---3-3-3-5----5-5-5-5-5-5--------------|
E|-3---33-3-5----7-7-7-7-7-7---3---55-5------7-7-7-7-7-7--------------| x 2


e|----------------------------------------------------------------------|
B|----------------------------------------------------------------------|
G|----------------------------------------------------------------------|
D|4-4-4-4-4-4-4-4-4-4-4-4-4-4-4-4---------------------------------------|
A|4-4-4-4-4-4-4-4-4-4-4-4-4-4-4-4---------------------------------------|
E|2-2-2-2-2-2-2-2-2-2-2-2-2-2-2-2---------------------------------------|

Breakdown bit

Gtr 1 - distorted


e|------------------------------------------------------------------------|
B|------------------------------------------------------------------------|
G|-----------5--------------------------------7---7b----------------------|
D|--5-5-7----0---7---7-7-7-7-7-------5-5-5----0----0---7-7-7-7-7----------|
A|--0-0-0--------0---0-0-0-0-0-------0-0-0----0--------0-0-0-0-0----------|
E|------------------------------------------------------------------------|
---| x2

Gtr 1 & 2

e|---------------------------------------------------------------------------|
B|---------------------------------------------------------------------------|
G|--7-7-7-7-7-7-7-7-8-8-8-8-8-8-8-8------------------------------------------|
D|--7-7-7-7-7-7-7-7-8-8-8-8-8-8-8-8------------------------------------------|
A|--5-5-5-5-5-5-5-5-6-6-6-6-6-6-6-6------------------------------------------|
E|---------------------------------------------------------------------------|

Chorus


Variation bit in last chorus

Gtr 1

e|---------------------------------------------|
B|---------------------------------------------|
G|---------------------------------------------|  x 2
D|---14--12-14--12-14-12-----------12----------|
A|-----------------------14---12---------------|
E|---------------------------------------------|


Gtr 2

e|----------------------------------------------------------------------|
B|----------------------------------------------------------------------|
G|9---9-9-9-9------------------------9---9-9-9-9------------------------|
D|9---9-9-9-9-9-----7---7---9--------9---9-9-9-9-9-----7---7---9--------|
A|7---7-7-7-7-9-----7---7---9--------7---7-7-7-7-7-----7---7---9--------|
E|------------7-----5---5---7--------------------7-----5---5---7--------|

Outro

Gtr1

e|----------------------------------------------|
B|----------------------------------------------|
G|-----------------------14--12--14-------------|
D|-----14--12-14--12-14--------------12---------|
A|----------------------------------------------|
E|----------------------------------------------|

Gtr 2

e|---------------------------------------------|
B|---------------------------------------------|
G|-----9---9-9-9-------------------------------|
D|-----9---9-9-9-9------12--14--12--9----------|
A|-----7---7-7-7-9------12--14--12--9----------|
E|---------------7------10--12--10--7----------|


There it is!!!


| b  bend
| /  slide up
| \  slide down
| h  hammer-on
| p  pull-off
| ~  vibrato
| +  harmonic
| x  Mute note
===============================================================================
Tap to rate this tab
# A B C D E F G H I J K L M N O P Q R S T U V W X Y Z