Song name
# A B C D E F G H I J K L M N O P Q R S T U V W X Y Z

Misc Unsigned Bands - Syreum - The Staff Of Ra tab

Guitar
E||-------|-------|-------|-------|-------|-------|-------|-------|-------|
B||-------|-------|-------|-------|-------|-------|-------|-------|-------|
G||-------|-------|-------|-------|-------|-------|-------|-------|-------|
D||-------|-------|-------|-------|-------|-------|-------|-------|-------|
A||-------|-------|-------|-------|-------|-------|-------|-------|-------|
D||-------|-------|-------|-------|-------|-------|-------|-------|-------|


                                                          W                 
-------|-------|-------|-------|-------|-------|-------|-------------------|
-------|-------|-------|-------|-------|-------|-------|--3----------------|
-------|-------|-------|-------|-------|-------|-------|--2----------------|
-------|-------|-------|-------|-------|-------|-------|--0----------------|
-------|-------|-------|-------|-------|-------|-------|--0----------------|
-------|-------|-------|-------|-------|-------|-------|--0----------------|


  W                   W                   W                 
-------------------|--8----------------|--L----------------|
--L----------------|--6----------------|--L----------------|
--L----------------|--5----------------|--L----------------|
--L----------------|--0----------------|--L----------------|
--L----------------|--0----------------|--L----------------|
--L----------------|--0----------------|--L----------------|


   W                    W                    W                 
--10----------------|---L----------------|--15----------------|
---8----------------|---L----------------|--13----------------|
---7----------------|---L----------------|--12----------------|
---0----------------|---L----------------|---0----------------|
---0----------------|---L----------------|---0----------------|
---0----------------|---L----------------|---0----------------|


                                 |--3--|     |-3-|     
   W                   Q.     E  S  S  S  E  S S S E   
--17----------------|---------------------------------|
--15----------------|---------------------------------|
--14----------------|---------------------------------|
---0----------------|--0------------------------------|
---0----------------|--0------5--5h-8p-5p-0--3-6-3-0--|
---0----------------|--0------------------------------|


           |----3----|                 |--3--|     |-3-|     
  H        Q    Q    Q       Q.     E  S  S  S  E  S S S E   
--------------------------|---------------------------------|
-----------8----7----4----|---------------------------------|
--------------------------|---------------------------------|
-----------5----4----1----|--0------------------------------|
--------------------------|--0------5--5h-8p-5p-0--3-6-3-0--|
--0-----------------------|--0------------------------------|


    PH                                                         
             |----3----|                 |--3--|     |-3-|     
    H        Q    Q    Q       Q.     E  S  S  S  E  S S S E   
----------------------------|---------------------------------|
----------------------------|---------------------------------|
----------------------------|---------------------------------|
-------------5----4----1----|--0------------------------------|
--<>5-----------------------|--0------5--5h-8p-5p-0--3-6-3-0--|
-------------5----4----1----|--0------------------------------|


           |----3----|                 |--3--|     |-3-|     
  H        Q    Q    Q       Q.     E  S  S  S  E  S S S E   
--------------------------|---------------------------------|
-----------8----7----4----|---------------------------------|
--------------------------|---------------------------------|
--0--------5----4----1----|--0------------------------------|
--0-----------------------|--0------5--5h-8p-5p-0--3-6-3-0--|
--0-----------------------|--0------------------------------|


    PH                                                             
             |----3----|                           |----3----|     
    H        Q    Q    Q       W                   Q    Q    Q     
----------------------------|-------------------|--0--------------|
----------------------------|--3----------------|--L----3---------|
----------------------------|--2----------------|--L---------2----|
-------------5----4----1----|--0----------------|--L--------------|
--<>5-----------------------|--0----------------|--L--------------|
-------------5----4----1----|--0----------------|--L--------------|


            |--3--|     |-3-|                |----3----|     
  Q.     E  S  S  S  E  S S S E     H        Q    Q    Q     
---------------------------------|--------------------------|
---------------------------------|-----------8----7----4----|
---------------------------------|--------------------------|
--0------------------------------|--0--------5----4----1----|
--0------5--5h-8p-5p-0--3-6-3-0--|--0-----------------------|
--0------------------------------|--0-----------------------|


                      |----3----|                 |--3--|     |-3-|     
  W                   Q    Q    Q       Q.     E  S  S  S  E  S S S E   
-------------------|--0--------------|---------------------------------|
--3----------------|--L----3---------|---------------------------------|
--2----------------|--L---------2----|---------------------------------|
--0----------------|--L--------------|--0------------------------------|
--0----------------|--L--------------|--0------5--5h-8p-5p-0--3-6-3-0--|
--0----------------|--L--------------|--0------------------------------|


           |----3----|                                             
  H        Q    Q    Q       W                   W                 
--------------------------|-------------------|-------------------|
-----------8----7----4----|--3----------------|--4----------------|
--------------------------|--2----------------|--3----------------|
--0--------5----4----1----|--0----------------|--1----------------|
--0-----------------------|--0----------------|--1----------------|
--0-----------------------|--0----------------|--1----------------|


  W                   H        Q    Q       W                 
-------------------|---------------------|-------------------|
--3----------------|--8--------7----4----|--3----------------|
--2----------------|--7--------6----3----|--2----------------|
--0----------------|--5--------4----1----|--0----------------|
--0----------------|--5--------4----1----|--0----------------|
--0----------------|--5--------4----1----|--0----------------|


  W                   W                   H        Q    Q     
-------------------|-------------------|---------------------|
--4----------------|--3----------------|--8--------7----4----|
--3----------------|--2----------------|--7--------6----3----|
--1----------------|--0----------------|--5--------4----1----|
--1----------------|--0----------------|--5--------4----1----|
--1----------------|--0----------------|--5--------4----1----|


  E.  E.  E.  S E  Q       E.  E.  E.  S E  Q       E.  E.  E.  S E  Q     
------------------------|------------------------|------------------------|
------------------------|------------------------|------------------------|
------------------------|--8---8---8---8-8--8----|------------------------|
--7---7---7---7-7--7----|--7---7---7---7-7--7----|--7---7---7---7-7--7----|
--5---5---5---5-5--5----|--6---6---6---6-6--6----|--5---5---5---5-5--5----|
--0---0---0---0-0--0----|------------------------|--0---0---0---0-0--0----|


  |----3----|                                                                 
  Q    Q    Q    Q    Q       E.  E.  E.  S E  Q       E.  E.  E.  S E  Q     
---------------------------|------------------------|------------------------|
---------------------------|------------------------|------------------------|
--5----5----5----5----5----|------------------------|--8---8---8---8-8--8----|
--5----5----5----5----5----|--7---7---7---7-7--7----|--7---7---7---7-7--7----|
--3----3----3----3----3----|--5---5---5---5-5--5----|--6---6---6---6-6--6----|
-----------------3----3----|--0---0---0---0-0--0----|------------------------|


                           |----3----|               
  E.  E.  E.  S E  Q       Q    Q    Q    Q    Q     
------------------------|---------------------------|
------------------------|---------------------------|
------------------------|--5----5----5----5----5----|
--7---7---7---7-7--7----|--5----5----5----5----5----|
--5---5---5---5-5--5----|--3----3----3----3----3----|
--0---0---0---0-0--0----|-----------------3----3----|


            |--3--|     |-3-|                |----3----|     
  Q.     E  S  S  S  E  S S S E     H        Q    Q    Q     
---------------------------------|--------------------------|
---------------------------------|-----------8----7----4----|
---------------------------------|--------------------------|
--0------------------------------|--0--------5----4----1----|
--0------5--5h-8p-5p-0--3-6-3-0--|--0-----------------------|
--0------------------------------|--0-----------------------|


                                      PH                       
            |--3--|     |-3-|                  |----3----|     
  Q.     E  S  S  S  E  S S S E       H        Q    Q    Q     
---------------------------------|----------------------------|
---------------------------------|----------------------------|
---------------------------------|----------------------------|
--0------------------------------|-------------5----4----1----|
--0------5--5h-8p-5p-0--3-6-3-0--|--<>5-----------------------|
--0------------------------------|-------------5----4----1----|


            |--3--|     |-3-|                |----3----|     
  Q.     E  S  S  S  E  S S S E     H        Q    Q    Q     
---------------------------------|--------------------------|
---------------------------------|-----------8----7----4----|
---------------------------------|--------------------------|
--0------------------------------|--0--------5----4----1----|
--0------5--5h-8p-5p-0--3-6-3-0--|--0-----------------------|
--0------------------------------|--0-----------------------|


                                      PH                       
            |--3--|     |-3-|                  |----3----|     
  Q.     E  S  S  S  E  S S S E       H        Q    Q    Q     
---------------------------------|----------------------------|
---------------------------------|----------------------------|
---------------------------------|----------------------------|
--0------------------------------|-------------5----4----1----|
--0------5--5h-8p-5p-0--3-6-3-0--|--<>5-----------------------|
--0------------------------------|-------------5----4----1----|


  Q.     E   Q.     E     E   E   E  E   Q    Q       Q.     E  Q.     E   
-----------------------|---------------------------|----------------------|
-----------------------|---------------------------|----------------------|
--7------8--11------8--|--7--12--11--8--11----8----|--7------8--7------6--|
-----------------------|---------------------------|----------------------|
--5------6---9------6--|--5--10---9--6---9----6----|--5------6--5------4--|
-----------------------|---------------------------|----------------------|


  E  E  E  E  Q    Q       Q.     E   Q.     E     E   E   E  E   Q    Q     
------------------------|-----------------------|---------------------------|
------------------------|-----------------------|---------------------------|
--3--6--3--2--3----2----|--7------8--11------8--|--7--12--11--8--11----8----|
------------------------|-----------------------|---------------------------|
--1--4--1--0--1----0----|--5------6---9------6--|--5--10---9--6---9----6----|
------------------------|-----------------------|---------------------------|


  Q.     E  Q.     E     E  E  E  E  Q    Q       Q.     E   Q.     E   
----------------------|------------------------|-----------------------|
----------------------|------------------------|-----------------------|
--7------8--7------6--|--3--6--3--2--3----2----|--7------8--11------8--|
----------------------|------------------------|-----------------------|
--5------6--5------4--|--1--4--1--0--1----0----|--5------6---9------6--|
----------------------|------------------------|-----------------------|


  E   E   E  E   Q    Q       Q.     E  Q.     E     E  E  E  E  Q    Q     
---------------------------|----------------------|------------------------|
---------------------------|----------------------|------------------------|
--7--12--11--8--11----8----|--7------8--7------6--|--3--6--3--2--3----2----|
---------------------------|----------------------|------------------------|
--5--10---9--6---9----6----|--5------6--5------4--|--1--4--1--0--1----0----|
---------------------------|----------------------|------------------------|


  Q.     E   Q.     E     E   E   E  E   Q    Q       Q.     E  Q.     E   
-----------------------|---------------------------|----------------------|
-----------------------|---------------------------|----------------------|
--7------8--11------8--|--7--12--11--8--11----8----|--7------8--7------6--|
-----------------------|---------------------------|----------------------|
--5------6---9------6--|--5--10---9--6---9----6----|--5------6--5------4--|
-----------------------|---------------------------|----------------------|


                            PMPM PM PM       PM PM PM PM       PM PM        
                                       |-3-|             |-3-|       |-3-|  
  E  E  E  E  Q    Q        S S  S  S  S S S S  S  S  S  S S S S  S  S S S  
------------------------|--------------------------------------------------|
------------------------|--------------------------------------------------|
--3--6--3--2--3----2----|--13----------------------------------------------|
------------------------|--------------------------------------------------|
--1--4--1--0--1----0----|--------------5-8-5-------------5-8-5-------5-8-5-|
------------------------|---0-0--0--0--------0--0--0--0--------0--0--------|


  PM PM PM PM       PM PM PM PM       PM PM        
              |-3-|             |-3-|       |-3-|  
  S  S  S  S  S S S S  S  S  S  S S S S  S  S S S  
--------------------------------------------------|
--------------------------------------------------|
--------------------------------------------------|
--------------------------------------------------|
--------------4-7-4-------------4-7-4-------4-7-4-|
--0--0--0--0--------0--0--0--0--------0--0--------|


  PM PM PM PM       PM PM PM PM       PM PM        
              |-3-|             |-3-|       |-3-|  
  S  S  S  S  S S S S  S  S  S  S S S S  S  S S S  
--------------------------------------------------|
--------------------------------------------------|
--------------------------------------------------|
--------------------------------------------------|
--------------5-8-5-------------5-8-5-------5-8-5-|
--0--0--0--0--------0--0--0--0--------0--0--------|


  PM PM PM PM       PM PM PM PM       PM PM        
              |-3-|             |-3-|       |-3-|  
  S  S  S  S  S S S S  S  S  S  S S S S  S  S S S  
--------------------------------------------------|
--------------------------------------------------|
--------------------------------------------------|
--------------------------------------------------|
--------------4-7-4-------------4-7-4-------4-7-4-|
--0--0--0--0--------0--0--0--0--------0--0--------|


  PM PM PM PM       PM PM PM PM       PM PM        
              |-3-|             |-3-|       |-3-|  
  S  S  S  S  S S S S  S  S  S  S S S S  S  S S S  
--------------------------------------------------|
--------------------------------------------------|
--------------------------------------------------|
--------------------------------------------------|
--------------5-8-5-------------5-8-5-------5-8-5-|
--0--0--0--0--------0--0--0--0--------0--0--------|


  PM PM PM PM       PM PM PM PM       PM PM        
              |-3-|             |-3-|       |-3-|  
  S  S  S  S  S S S S  S  S  S  S S S S  S  S S S  
--------------------------------------------------|
--------------------------------------------------|
--------------------------------------------------|
--------------------------------------------------|
--------------4-7-4-------------4-7-4-------4-7-4-|
--0--0--0--0--------0--0--0--0--------0--0--------|


  PM PM PM PM       PM PM PM PM       PM PM        
              |-3-|             |-3-|       |-3-|  
  S  S  S  S  S S S S  S  S  S  S S S S  S  S S S  
--------------------------------------------------|
--------------------------------------------------|
--------------------------------------------------|
--------------------------------------------------|
--------------5-8-5-------------5-8-5-------5-8-5-|
--0--0--0--0--------0--0--0--0--------0--0--------|


  PM PM PM PM       PM PM PM PM       PM PM        
              |-3-|             |-3-|       |-3-|  
  S  S  S  S  S S S S  S  S  S  S S S S  S  S S S  
--------------------------------------------------|
--------------------------------------------------|
--------------------------------------------------|
--------------------------------------------------|
--------------4-7-4-------------4-7-4-------4-7-4-|
--0--0--0--0--------0--0--0--0--------0--0--------|


  PM PM PM PM PM PM PM PM PM       PM PM PM PM PM PM PM PM PM        
                    |--3--|  |-3-|                   |--3--|  |-3-|  
  T  T  S  T  T  S  S  S  S  S S S T  T  S  T  T  S  S  S  S  S S S  
--------------------------------------------------------------------|
--------------------------------------------------------------------|
--------------------------------------------------------------------|
-----------------------------0-5-8----------------------------0-3-6-|
--------------------------------------------------------------------|
--0--0--0--0--0--0--0--5--8--------0--0--0--0--0--0--0--3--6--------|


  PM PM PM PM PM PM PM PM PM       PM PM PM PM PM PM PM PM  PM               
                    |--3--|  |-3-|                   |---3--| |--3-| |--3-|  
  T  T  S  T  T  S  S  S  S  S S S T  T  S  T  T  S  S  S   S S S  S S S  S  
----------------------------------------------------------------------------|
----------------------------------------------------------------------------|
----------------------------------------------------------------------------|
-----------------------------0-5-8-----------------------------------0-8-11-|
--------------------------------------------------------------0-8-11--------|
--0--0--0--0--0--0--0--5--8--------0--0--0--0--0--0--0--8--11---------------|


  PM PM PM PM PM PM PM PM PM       PM PM PM PM PM PM PM PM PM        
                    |--3--|  |-3-|                   |--3--|  |-3-|  
  T  T  S  T  T  S  S  S  S  S S S T  T  S  T  T  S  S  S  S  S S S  
--------------------------------------------------------------------|
--------------------------------------------------------------------|
--------------------------------------------------------------------|
-----------------------------0-5-8----------------------------0-3-6-|
--------------------------------------------------------------------|
--0--0--0--0--0--0--0--5--8--------0--0--0--0--0--0--0--3--6--------|


  PM PM PM PM PM PM PM PM PM       PM PM PM PM PM PM PM PM  PM               
                    |--3--|  |-3-|                   |---3--| |--3-| |--3-|  
  T  T  S  T  T  S  S  S  S  S S S T  T  S  T  T  S  S  S   S S S  S S S  S  
----------------------------------------------------------------------------|
----------------------------------------------------------------------------|
----------------------------------------------------------------------------|
-----------------------------0-5-8-----------------------------------0-8-11-|
--------------------------------------------------------------0-8-11--------|
--0--0--0--0--0--0--0--5--8--------0--0--0--0--0--0--0--8--11---------------|


  PM PM PM PM PM PM PM PM PM       PM PM PM PM PM PM PM PM PM        
                    |--3--|  |-3-|                   |--3--|  |-3-|  
  T  T  S  T  T  S  S  S  S  S S S T  T  S  T  T  S  S  S  S  S S S  
--------------------------------------------------------------------|
--------------------------------------------------------------------|
--------------------------------------------------------------------|
-----------------------------0-5-8----------------------------0-3-6-|
--------------------------------------------------------------------|
--0--0--0--0--0--0--0--5--8--------0--0--0--0--0--0--0--3--6--------|


  PM PM PM PM PM PM PM PM PM       PM PM PM PM PM PM PM PM  PM               
                    |--3--|  |-3-|                   |---3--| |--3-| |--3-|  
  T  T  S  T  T  S  S  S  S  S S S T  T  S  T  T  S  S  S   S S S  S S S  S  
----------------------------------------------------------------------------|
----------------------------------------------------------------------------|
----------------------------------------------------------------------------|
-----------------------------0-5-8-----------------------------------0-8-11-|
--------------------------------------------------------------0-8-11--------|
--0--0--0--0--0--0--0--5--8--------0--0--0--0--0--0--0--8--11---------------|


  PM PM PM PM PM PM PM PM PM       PM PM PM PM PM PM PM PM PM        
                    |--3--|  |-3-|                   |--3--|  |-3-|  
  T  T  S  T  T  S  S  S  S  S S S T  T  S  T  T  S  S  S  S  S S S  
--------------------------------------------------------------------|
--------------------------------------------------------------------|
--------------------------------------------------------------------|
-----------------------------0-5-8----------------------------0-3-6-|
--------------------------------------------------------------------|
--0--0--0--0--0--0--0--5--8--------0--0--0--0--0--0--0--3--6--------|


  PM PM PM PM PM PM PM PM PM       PM PM PM PM PM PM PM PM  PM               
                    |--3--|  |-3-|                   |---3--| |--3-| |--3-|  
  T  T  S  T  T  S  S  S  S  S S S T  T  S  T  T  S  S  S   S S S  S S S  S  
----------------------------------------------------------------------------|
----------------------------------------------------------------------------|
----------------------------------------------------------------------------|
-----------------------------0-5-8-----------------------------------0-8-11-|
--------------------------------------------------------------0-8-11--------|
--0--0--0--0--0--0--0--5--8--------0--0--0--0--0--0--0--8--11---------------|


  W                   W                   E.  E.  E  S E  Q    S  
-------------------|-------------------|-------------------------|
--3----------------|-------------------|-------------------------|
--2----------------|-------------------|--7---7---7--7-6--5----L-|
--0----------------|--L----------------|-------------------------|
--0----------------|--L----------------|--5---5---5--5-4--3----L-|
--0----------------|--L----------------|-------------------------|


  E.  E.  E.   E.   Q       E.  E.  E  S E  Q    S    E.  E.  E.   E.   Q     
-------------------------|-------------------------|-------------------------|
-------------------------|-------------------------|-------------------------|
--9---9---8---11---11----|--7---7---7--7-6--5----L-|--9---9---8---11---11----|
-------------------------|-------------------------|-------------------------|
--7---7---6----9----9----|--5---5---5--5-4--3----L-|--7---7---6----9----9----|
-------------------------|-------------------------|-------------------------|


  E.  E.  E  S E  Q    S    E.  E.  E.   E.   Q       E.  E.  E.  S E  Q     
-------------------------|-------------------------|------------------------|
-------------------------|-------------------------|------------------------|
--7---7---7--7-6--5----L-|--9---9---8---11---11----|------------------------|
-------------------------|-------------------------|--7---7---7---7-7--7----|
--5---5---5--5-4--3----L-|--7---7---6----9----9----|--5---5---5---5-5--5----|
-------------------------|-------------------------|--0---0---0---0-0--0----|


                                                    |----3----|               
  E.  E.  E.  S E  Q       E.  E.  E.  S E  Q       Q    Q    Q    Q    Q     
------------------------|------------------------|---------------------------|
------------------------|------------------------|---------------------------|
--8---8---8---8-8--8----|------------------------|--5----5----5----5----5----|
--7---7---7---7-7--7----|--7---7---7---7-7--7----|--5----5----5----5----5----|
--6---6---6---6-6--6----|--5---5---5---5-5--5----|--3----3----3----3----3----|
------------------------|--0---0---0---0-0--0----|-----------------3----3----|


  E.  E.  E.  S E  Q       E.  E.  E.  S E  Q       E.  E.  E.  S E  Q     
------------------------|------------------------|------------------------|
------------------------|------------------------|------------------------|
------------------------|--8---8---8---8-8--8----|------------------------|
--7---7---7---7-7--7----|--7---7---7---7-7--7----|--7---7---7---7-7--7----|
--5---5---5---5-5--5----|--6---6---6---6-6--6----|--5---5---5---5-5--5----|
--0---0---0---0-0--0----|------------------------|--0---0---0---0-0--0----|


  |----3----|                                                               
  Q    Q    Q    Q    Q        E.   E.   E   S  E   Q.                      
---------------------------|-------------------------------|-------|-------|
---------------------------|-------------------------------|-------|-------|
--5----5----5----5----5----|--14---14---14--14-13--13------|-------|-------|
--5----5----5----5----5----|-------------------------------|-------|-------|
--3----3----3----3----3----|--12---12---12--12-11--11------|-------|-------|
-----------------3----3----|-------------------------------|-------|-------|


-------|-------|-------|-------|-------|-------|-------|-------|-------|-------|
-------|-------|-------|-------|-------|-------|-------|-------|-------|-------|
-------|-------|-------|-------|-------|-------|-------|-------|-------|-------|
-------|-------|-------|-------|-------|-------|-------|-------|-------|-------|
-------|-------|-------|-------|-------|-------|-------|-------|-------|-------|
-------|-------|-------|-------|-------|-------|-------|-------|-------|-------|


-------|-------|-------|-------|-------|-------|-------|-------|-------|-------|
-------|-------|-------|-------|-------|-------|-------|-------|-------|-------|
-------|-------|-------|-------|-------|-------|-------|-------|-------|-------|
-------|-------|-------|-------|-------|-------|-------|-------|-------|-------|
-------|-------|-------|-------|-------|-------|-------|-------|-------|-------|
-------|-------|-------|-------|-------|-------|-------|-------|-------|-------|


-------||
-------||
-------||
-------||
-------||
-------||




Duration Legend
---------------
W - whole
H - half
Q - quarter
E - 8th
S - 16th
T - 32nd
X - 64th
. - note dotted
|-n-|  - n-tuplets


Tablature Legend
----------------
L - tied note
x - dead note
g - grace note
(n) - ghost note
> - accentuded note
NH - natural harmonic
AH - artificial harmonic
TH - tapped harmonic
SH - semi harmonic
PH - pitch harmonic
h - hammer on
p - pull off
b - bend
br - bendRelease
pb - preBend
pbr - preBendRelease
brb - bendReleaseBend
\n/ - tremolo bar dip
\n - tremolo bar dive
-/n - tremolo bar Release up
/n\ - tremolo bar inverted dip
/n - tremolo bar return
-\n - tremolo bar Release down
S - shift slide
s - legato slide
/ -  slide into from below or out of upwards
\ -  slide into from above or out of downwards
~ - vibrato
W - wide vibrato
tr - trill
TP - tremolo picking
T - tapping
S - slap
P - pop
< - fade in
^ - brush up
v - brush down
Tap to rate this tab
# A B C D E F G H I J K L M N O P Q R S T U V W X Y Z