Guitaretab - guitar tabs
Song name
# A B C D E F G H I J K L M N O P Q R S T U V W X Y Z

Misc Unsigned Bands - Nitroglycerin - Alternate Rockers tab

.:NITROGLYCERIN:.			.:ALTERNATE ROCKERS:.


Tabbed by Nitroglycerin17

~intro~

E|-10--10-10-10-10-10-10-----------------------------10--10--------------------|
B|-11--11-11-11-11-11-11----10--10-10-10-10-10-10----11--11--10--10-10-10------|
G|-10--10-10-10-10-10-10----10--10-10-10-10-10-10----10--10--10--10-10-10------|
D|--------------------------10--10-10-10-10-10-10------------10--10-10-10------|
A|-----------------------------------------------------------------------------|
E|-----------------------------------------------------------------------------|


E|-----------------------------------------------------------------------------|
B|-----------------------------------------------------------------------------|
G|-9---9--9--10-10-10-10-10--9----yeah---/-11111112121412111212121211111212----|
D|-10--10-10-10-10-10-10-10--10----------/-12121212121212121212121212121212----|
A|-----------------------------------------------------------------------------|
E|-----------------------------------------------------------------------------|


E|-----------------------------------------------------------------------------|
B|-----------------------------------------------------------------------------|
G|-11111112121412111212121211111212-11111112121412111212121211111212-----------|
D|-12121212121212121212121212121212-12121212121212121212121212121212-----------|
A|-----------------------------------------------------------------------------|
E|-----------------------------------------------------------------------------|


E|-----------------------------------------------------------------------------|
B|-----------------------------------------------------------------------------|
G|-11111112121412111212121211111212--------------------------------------------|
D|-12121212121212121212121212121212--------------------------------------------|
A|----------------------------------2--------5--2--------5-5--2----------------|
E|----------------------------------0--------3--0--------3-3--0----------------|



~riff1~

E|-----------------------------------------------------------------------------|
B|-----------------------------------------------------------------------------|
G|-----------------------------------------------------------------------------|
D|-----------------------------------------------------------------------------|
A|-----------------------------------------------------------------------x8----|
E|-0-0---3--5-5--7--5--3--2-2---57-7--9-7-5-----------------------------------|

~fill~

[ Tab from: http://www.guitaretab.com/m/misc-unsigned-bands/84783.html ]
E|-----------------------------------------------------------------------------|
B|-----------------------------------------------------------------------------|
G|-----------------------------------------------------------------------------|
D|-----------------------------------------------------------------------------|
A|-2-2-2-2-2-2-2-2-5-5-5-5-5-5-5-5--2-2--5-5--2--------------------------------|
E|-0-0-0-0-0-0-0-0-3-3-3-3-3-3-3-3--0-0--3-3--0--------------------------------|

~chorus~

E|-----------------------------------------------------------------------------|
B|-----------------------------------------------------------------------------|
G|-----------------------------------------------------------------------------|
D|-----------------------------------------------------------------------------|
A|-2-2---5--7-7--9--7--5--4-4---7-9-9-11-9-7------x2---------------------------|
E|-0-0---3--5-5--7--5--3--2-2---57-7--9-7-5-----------------------------------|

~solo~

E|--12-9----9------------------------------------------------------------------|
B|-------12---12-9-9-12----9---------------------------------------------------|
G|----------------------11---11-9-9-11----9------------------------------------|
D|-------------------------------------11---9-11-9----9------------------------|
A|-------------------------------------------------11---11-9-11-9-------11-----|
E|----------------------------------------------------------------12----9------|




~riff2~

E|-----------------------------------------------------------------------------|
B|-----------------------------------------------------------------------------|
G|-----------------------------------------------------------------------------|
D|-----------------------------------------------------------------------------|
A|-2-2---5--7-7--9--7--5--4-4---7-9-9-11-9-7------x12--------------------------|
E|-0-0---3--5-5--7--5--3--2-2---57-7--9-7-5-----------------------------------|

~2nd chorus~

E|-----------------------------------------------------------------------------|
B|-----------------------------------------------------------------------------|
G|-----------------------------------------------------------------------------|
D|-----------------------------------------------------------------------------|
A|-2-2---5--7-7--9--7--5--4-4---7-9-9-11-9-7-----------------------------------|
E|-0-0---3--5-5--7--5--3--2-2---57-7--9-7-5-----------------------------------|

E|-----------------------------------------------------------------------------|
B|-----------------------------------------------------------------------------|
G|-----------------------------------------------------------------------------|
D|-----------------------------------------------------------------------------|
A|-2-2---5--7-7--9--7--5--4-4---7-9-9-11-9-7---2-2---5--7-7--9--7--5-----------|
E|-0-0---3--5-5--7--5--3--2-2---57-7--9-7-5---0-0---3--5-5--7--5--3-----------|


.:SONG STRUCTURE:.
INTRO
RIFF1
FILL
CHORUS
FILL
RIFF1
FILL
CHORUS
FILL SOLO
RIFF2
FILL
CHORUS
2ND CHORUS
Related for Nitroglycerin - Alternate Rockers tab