Song name
# A B C D E F G H I J K L M N O P Q R S T U V W X Y Z

Misc Unsigned Bands - Dagon - Beast Within tab

Artist - Dagon
Song   - Beast Within
Album  - Beast Within


INTRO Part1            "Clean/Chorus"
e---------------------------------------------------------------------|
b---------------------------------------------------------------------|
g--6--6--6-5--5--5-4--4--4--3--3--3-----------------------------------| x2
d---33-33-3-33-33-3-33-33-3--33-33-3----------------------------------|
a---------------------------------------------------------------------|
d---------------------------------------------------------------------|

INTRO Part2          "Distortion/Chorus"
e---------------------------------------------------------------------|
b---------------------------------------------------------------------|
g--6--6--6-5--5--5-4--4--4--3--3--3-----------3-----------------------| x2
d---33-33-3-33-33-3-33-33-3--33-33-3----------3-----------------------|
a---------------------------------------------------------------------|
d---------------------------------------------------------------------|


Riff 1 (Vocals)
e---------------------------------------------------------------------|
b---------------------------------------------------------------------|
g---------------------------------------------------------------------|
d---------------------------------------------------------------------|
a-5-xxxxxx---1-3---5-xxxxxx---1-3---5-xxxxxx---1-3-5---xxxxxx---1-3---|
d-5-xxxxxx---1-3---5-xxxxxx---1-3---5-xxxxxx---1-3-5---xxxxxx---1-3---|


Riff2 (Vocals)
e-------------------------------------------------------------------------|
b-------------------------------------------------------------------------|
g-------------------------------------------------------------------------|
d-------------------------------------------------------------------------|
a-55555555-33333333-55555555-11111111-55555555-33333333-55555555-11111111-|
d-55555555-33333333-55555555-11111111-55555555-33333333-55555555-11111111-|


Riff 1 (Vocals)
e---------------------------------------------------------------------|
b---------------------------------------------------------------------|
g---------------------------------------------------------------------|
d---------------------------------------------------------------------|
a-5-xxxxxx---1-3---5-xxxxxx---1-3---5-xxxxxx---1-3-5---xxxxxx---1-3---|
d-5-xxxxxx---1-3---5-xxxxxx---1-3---5-xxxxxx---1-3-5---xxxxxx---1-3---|


Riff2 (Vocals)
e-------------------------------------------------------------------------|
b-------------------------------------------------------------------------|
g-------------------------------------------------------------------------|
d-------------------------------------------------------------------------|
a-55555555-33333333-55555555-11111111-55555555-33333333-55555555-11111111-|
d-55555555-33333333-55555555-11111111-55555555-33333333-55555555-11111111-|


Riff3 (Just the guitar and bass)
e-------------------------------------------------------------------------|
b-------------------------------------------------------------------------|
g-------------------------------------------------------------------------|
d-------------------------------------------------------------------------|
a-5-53-5-51--5-53-5-51----------------------------------------------------|
d-5-53-5-51--5-53-5-51----------------------------------------------------|


Riff 1 (Vocals)
e---------------------------------------------------------------------|
b---------------------------------------------------------------------|
g---------------------------------------------------------------------|
d---------------------------------------------------------------------|
a-5-xxxxxx---1-3---5-xxxxxx---1-3---5-xxxxxx---1-3-5---xxxxxx---1-3---|
d-5-xxxxxx---1-3---5-xxxxxx---1-3---5-xxxxxx---1-3-5---xxxxxx---1-3---|


Riff2 (Vocals)
e-------------------------------------------------------------------------|
b-------------------------------------------------------------------------|
g-------------------------------------------------------------------------|
d-------------------------------------------------------------------------|
a-55555555-33333333-55555555-11111111-55555555-33333333-55555555-11111111-|
d-55555555-33333333-55555555-11111111-55555555-33333333-55555555-11111111-|


OUTRO (Vocals)
e---------------------------------------------------------------------|
b---------------------------------------------------------------------|
g---------------------------------------------------------------------|
d---------------------------------------------------------------------|
a-5-xxxxxx---1-3---5-xxxxxx---1-3---5-xxxxxx---1-3-5---xxxxxx---1-3---|
d-5-xxxxxx---1-3---5-xxxxxx---1-3---5-xxxxxx---1-3-5---xxxxxx---1-3---|

100%correct
Tap to rate this tab
 
# A B C D E F G H I J K L M N O P Q R S T U V W X Y Z