Song name
# A B C D E F G H I J K L M N O P Q R S T U V W X Y Z

Misc Unsigned Bands - Welcome To College - Acoustic 1 tab

Tuning in Eb

Verse
Eb|--000--000--000--000-------------------------|
Ab|--000--000--000--000-------------------------|
Db|--222--666--444--222-------------------------|
Gb|--222--666--444--222-------------------------|   x2
Bb|--111--444--222--000-------------------------|
Eb|--000--555--000--000-------------------------|

Chorus
Eb|--00--00--00--00--00--00--00--00--00---------------|
Ab|--00--00--00--00--00--00--77--99--22---------------|
Db|--66--88--66--44--66--88--77--99--22---------------|
Gb|--77--99--77--44--77--99--00--00--22---------------|
Bb|--77--99--77--22--77--99--00--00--00---------------|
Eb|--55--77--55--00--55--77--00--00--00---------------|

Verse
Eb|--000--000--000--000-------------------------|
Ab|--000--000--000--000-------------------------|
Db|--222--666--444--222-------------------------|
Gb|--222--666--444--222-------------------------|   x2
Bb|--111--444--222--000-------------------------|
Eb|--000--555--000--000-------------------------|

Chorus
Eb|--00--00--00--00--00--00--00--00--00---------------|
Ab|--00--00--00--00--00--00--77--99--22---------------|
Db|--66--88--66--44--66--88--77--99--22---------------|
Gb|--77--99--77--44--77--99--00--00--22---------------|
Bb|--77--99--77--22--77--99--00--00--00---------------|
Eb|--55--77--55--00--55--77--00--00--00---------------|

Verse
Eb|--000--000--000--000-------------------------|
Ab|--000--000--000--000-------------------------|
Db|--222--666--444--222-------------------------|
Gb|--222--666--444--222-------------------------|   x2
Bb|--111--444--222--000-------------------------|
Eb|--000--555--000--000-------------------------|

Ending

Eb|---000---|
Ab|---000---|
Db|---222---|
Gb|---222---|
Bb|---111---|
Eb|---000---|
Tap to rate this tab
# A B C D E F G H I J K L M N O P Q R S T U V W X Y Z