Song name
# A B C D E F G H I J K L M N O P Q R S T U V W X Y Z

Misc Unsigned Bands - Zygote - Sting Acoustic tab

Tabbed by: Myles Rosenthal & Cody Stein
Email: coolmyles101@hotmail.com




Intro/Verses:

e|---2--09--7-|
B|---3--10--8-|
G|---4--11--9-|
D|---4--11--9-|
A|-1/2--09--7-|
E|------------|


Pre-Chorus:

e|-09-7-|
B|-10-8-|
G|-11-9-|
D|-11-9-|
A|-09-7-|
E|------|


Chorus:

e|--2-2-3-2-|
B|--4-3-3-2-|
G|--5-2---3-|
D|--5-----4-|
A|--2---2-4-|
E|------3---|


Tap to rate this tab
 
# A B C D E F G H I J K L M N O P Q R S T U V W X Y Z