Guitaretab - guitar tabs
Song name
# A B C D E F G H I J K L M N O P Q R S T U V W X Y Z

Misc Unsigned Bands - Nitroglycerin - Chemical Chaos tab

.:NITROGLYCERIN:.			.:CHEMICAL CHAOS:.


Tabbed by Nitroglycerin17

~riff1~

E|-----------------------------------------------------------------------------|
B|-----------------------------------------------------------------------------|
G|-----------------------------------------------------------------------------|
D|-2222222233333332----------------2222222233333332----------------------x4----|
A|-----------------3333333322222222----------------3333333322222222------------|
E|-----------------------------------------------------------------------------|


~chorus~
[ Tab from: http://www.guitaretab.com/m/misc-unsigned-bands/84869.html ]
E|-----------------------------------------------------------------------------|
B|-----------------------------------------------------------------------------|
G|-----------------------------------------------------------------------------|
D|-2--2-2-2--5--5-5-5--4--4-4-4--3--3-3-3-------------------------------x2-----|
A|-0--0-0-0--3--3-3-3--2--2-2-2--1--1-1-1--------------------------------------|
E|-----------------------------------------------------------------------------|


~outro~

E|-----------------------------------------------------------------------------|
B|-----------------------------------------------------------------------------|
G|-----------------------------------------------------------------------------|
D|-2222222233333332----------5--2----------------------------------------------|
A|-----------------3---------3--0----------------------------------------------|
E|-----------------------------------------------------------------------------|


.:SONG STRUCTURE:.
RIFF1
CHORUS
RIFF1
CHORUS
RIFF1
CHORUS
RIFF1 (WITH OVERDRIVE)
CHORUS
OUTRO
Related for Nitroglycerin - Chemical Chaos tab
×
Nitroglycerin - Chemical Chaos