Song name
# A B C D E F G H I J K L M N O P Q R S T U V W X Y Z

Misc Unsigned Bands - Nitroglycerin - Dont Stop Now tab

.:NITROGLYCERIN:.			.:DON’T STOP NOW:.


Tabbed by Nitroglycerin17

~riff1~

E|-----------------------------------------------------------------------------|
B|-----------------------------------------------------------------------------|
G|-----------------------------------------------------------------------------|
D|-----------------------------------------------------------------------------|
A|-2--9-8/9--2-2-9-8/9-8/9--2--9-8/9--2-2-9-8/9-8/9----------------------------|
E|-0--7-6/7--0-0-7—6/7-6/7--0--7-6/7--0-0-7—6/7-6/7----------------------------|

							        Don’t stop running……….

E|-----------------------------------------------------------------------------|
B|-----------------------------------------------------------------------------|
G|-----------------------------------------------------------------------------|
D|-----------------------------------------------------------------------------|
A|-2--9-8/9--2-2-9-8/9-8/9--------------------------2--9-8/9--2-2-9-8/9-8/9----|
E|-0--7-6/7--0-0-7—6/7-6/7--------------------------0--7-6/7--0-0-7—6/7-6/7----|

				Dark empty streets and…….

E|-----------------------------------------------------------------------------|
B|-----------------------------------------------------------------------------|
G|-----------------------------------------------------------------------------|
D|-----------------------------------------------------------------------------|
A|------------2--9-8/9--2-2-9-8/9-8/9--2--9-8/9--2-2-9-8/9-8/9-----------------|
E|------------0--7-6/7--0-0-7—6/7-6/7--0--7-6/7--0-0-7—6/7-6/7-----------------|

So carry on…				Yes carry on…
~chorus~

E|-----------------------------------------------------------------------------|
B|-----------------------------------------------------------------------------|
G|-----------------------------------------------------------------------------|
D|-----------------------------------------------------------------------------|
A|--11-11-11-11-11-11-11-11-9-9-9-9-9-9-9-9-x3--7------------------------------|
E|--9--9--9--9--9--9--9--9--7-7-7-7-7-7-7-7-----5------------------------------|


~solo~

E|-----------------------------------------------------------------------------|
B|-----------------------------------------------------------------------------|
G|-----------------------------------------------------------------------------|
D|-9-9--14-12-12-9-12-14-14--14-12-12--12-9-12-12-14-14-14-12-14-12-12-9-12----|
A|-----------------------------------------------------------------------------|
E|-----------------------------------------------------------------------------|


E|-----------------------------------------------------------------------------|
B|-----------------------------------------------------------------------------|
G|-----------------------------------------------------------------------------|
D|-14-14-/-16------12-12--17-15-15-12-12-17-17--17-15-15--15-12-15-15-17-17----|
A|-----------------------------------------------------------------------------|
E|-----------------------------------------------------------------------------|


E|-----------------------------------------------------------------------------|
B|-----------------------------------------------------------------------------|
G|-----------------------------------------------------------------------------|
D|17-15-17-15-15-12-15-17-17-/-19----------------------------------------------|
A|------------------------------------------2----------------------------------|
E|------------------------------------------0----------------------------------|

.:SONG STRUCTURE:.
RIFF1
CHORUS
RIFF1
CHORUS
RIFF1
CHORUS
RIFF1
CHORUS
SOLO
Tap to rate this tab
# A B C D E F G H I J K L M N O P Q R S T U V W X Y Z