Guitaretab - guitar tabs
Song name
# A B C D E F G H I J K L M N O P Q R S T U V W X Y Z

Misc Unsigned Bands - Mytralites - I Cant Find My Shoes tab

OK, this si my band's song plan for a song we're gonna use as a starting point for a
Basically I(Abi Harrison, rhythm guitar) am shoutin stuff offstage like, 'hey have any of
seen my shoes? Anyone??!! No, those aren't my shoes! Have you seen my fucking shoes??!! 
I'm not going to play while wearing flip-flops! Stop being stupid! I'm not a size 3!'
stuff like that. then i'll say 'fine I'l ask the crowd' so I walk out onto the stage 
this little riff:

e |------------------------------------------|
B |--7-7-7-7-5-5-5-5-3-3-3-3-1-1-1-1-2-2-2-2-|
G |------------------------------------------|   X
D |-9-9-9-9-7-7-7-7-5-5-5-5-3-3-3-3-4-4-4-4--|
A |------------------------------------------|
E |------------------------------------------|
[ Tab from: ]
During which I'll search around the drums kit, the amps, the microphone, etc.
The I'll say 'have any of you seen my shoes? they're black and they're size 6', while
the crowd. Then the rest of the band will walk onstage and join in my little riff(not sure
with yet though) and I will speed up my riff until it's about 3 times faster than it 
with, then I'll play:

e |----------------------|
B |--7-5-3-1-0-2-4-6--8--|
G |----------------------|
D |-9-7-5-3-2-4-6-8---10-|
A |----------------------|
E |----------------------|

                   e |----|
                   B |-8--|The whole band will play a big chordy thing
 But with the last G |----|an then carry on with a heavier bit of the song
                   D |-10-|(not yet worked out)
                   A |----|
                   E |----|

That's all I've got for the moment, but more will be posted up with the title
- I can't find my shoes - Abi Harrison' and then the number part of the song. so number 
will be
part of the song after part 1(no duh!)

Anyway, if you have any comments, don't hesitate to email me at
or the band at

Thanks guys

(rhythm guitar)

Related for Mytralites - I Cant Find My Shoes tab