Song name
# A B C D E F G H I J K L M N O P Q R S T U V W X Y Z

Misc Unsigned Bands - Dagon - Limb By Limb tab

Artist - Dagon                                    p - Pulloff
  Song - Limb By Limb                            Fb - FullBend
 Album - Beast Within                             V - Vibrato
                                                  H - Hammer on
                                                  P - Pull Off


INTRO
e----------:
b----------:
g----------:
d----------:
a--7/3p-0--:
d--7/3p-0--:


e---------------------------------------------------------------------------|
b---------------------------------------------------------------------------|
g---------------------------------------------------------------------------|
d---------------------------------------------------------------------------|
a--0-1--1-3--3-0---------0-1--1-3--3-0---------0-1--1-3--3-0----------------|
d--0-1--1-3--3-0---------0-1--1-3--3-0---------0-1--1-3--3-0----------------|


Riff 1    "vocals"
e------------------------------------------------------------------|
b------------------------------------------------------------------|
g------------------------------------------------------------------|x6
d------------------------------------------------------------------|
a--0-1-2--0-1-2--0-1-2--0-1-2--0-1-2--0-1-2--0-1-2--0-1-2----------|
d--0-1-2--0-1-2--0-1-2--0-1-2--0-1-2--0-1-2--0-1-2--0-1-2----------|


Riff 2
e------------------------------------------------------------------|
b------------------------------------------------------------------|
g------------------------------------------------------------------|x4
d------------------------------------------------------------------|
a--0-0-5-0-3-0-7--0-0-5-0-3-0-2------------------------------------|
d--0-0-5-0-3-0-7--0-0-5-0-3-0-2------------------------------------|


Riff 1    "vocals"
e------------------------------------------------------------------|
b------------------------------------------------------------------|
g------------------------------------------------------------------|x6
d------------------------------------------------------------------|
a--0-1-2--0-1-2--0-1-2--0-1-2--0-1-2--0-1-2--0-1-2--0-1-2----------|
d--0-1-2--0-1-2--0-1-2--0-1-2--0-1-2--0-1-2--0-1-2--0-1-2----------|


Guitar Solo 1
e------------------------7H-9H-10P-------5H-7H-8P-------3H-5H-6P---5H-6P----|
b-9Fb-9-10-9-----------7---------------5--------------3---------------------|
g------------10V---7-8-------------5-6------------3-4-----------------------|
d---------------------------------------------------------------------------|
a---------------------------------------------------------------------------|
d---------------------------------------------------------------------------|


Riff 2
e------------------------------------------------------------------|
b------------------------------------------------------------------|
g------------------------------------------------------------------|x4
d------------------------------------------------------------------|
a--0-0-5-0-3-0-7--0-0-5-0-3-0-2------------------------------------|
d--0-0-5-0-3-0-7--0-0-5-0-3-0-2------------------------------------|


Guitar Solo 2
e--12Fb-12-13-12--------------16-15--------------------------18Hb-----------|
b----------------13--12/16-15-------16-15-------------18-17-----------------|
g-----------------------------------------16Fb--18-17-----------------------|
d---------------------------------------------------------------------------|
a---------------------------------------------------------------------------|
d---------------------------------------------------------------------------|


OUTRO
e------------------------------------------------------------------|
b------------------------------------------------------------------|
g------------------------------------------------------------------|
d------------------------------------------------------------------|
a--0-1-2--0-1-2--0-1-2--0-1-2--0-1-2---3-2-1-0---------------------|
d--0-1-2--0-1-2--0-1-2--0-1-2--0-1-2---3-2-1-0---------------------|
Tap to rate this tab
 
# A B C D E F G H I J K L M N O P Q R S T U V W X Y Z