Song name
# A B C D E F G H I J K L M N O P Q R S T U V W X Y Z

Misc Unsigned Bands - Day Of Infamy - Danny Got Broke tab

Day of Infamy
Danny Got Broke
Holyoke, MA

Intro 4x
D|-------------------------------------------|
A|-------------------------------------------|
F|-------------------------------------------|
C|---7--7--6--5-------5--5--6--7-------------|
G|---7--7--6--5-------5--5--6--7-------------|
C|---7--7--6--5-------5--5--6--7-------------|

Chorus 4x
D|-----------------------------------|
A|-----------------------------------|
F|-----------------------------------|
C|---7--6--5--5--5--6--7-------------|
G|---7--6--5--5--5--6--7-------------|
C|---7--6--5--5--5--6--7-------------|

Verse 1 - Nothing

Chorus 4x
D|-----------------------------------|
A|-----------------------------------|
F|-----------------------------------|
C|---7--6--5--5--5--6--7-------------|
G|---7--6--5--5--5--6--7-------------|
C|---7--6--5--5--5--6--7-------------|

Verse 2 - Nothing

Chorus 4x
D|-----------------------------------|
A|-----------------------------------|
F|-----------------------------------|
C|---7--6--5--5--5--6--7-------------|
G|---7--6--5--5--5--6--7-------------|
C|---7--6--5--5--5--6--7-------------|

Verse 3 2x
D|-----------------------------------|
A|-----------------------------------|
F|-----------------------------------|
C|---7~--5~--7~--5~--5-5-6-----------|
G|---7~--5~--7~--5~--5-5-6-----------|
C|---7~--5~--7~--5~--5-5-6-----------|
                     . . .

Chorus 4x
D|-----------------------------------|
A|-----------------------------------|
F|-----------------------------------|
C|---7--6--5--5--5--6--7-------------|
G|---7--6--5--5--5--6--7-------------|
C|---7--6--5--5--5--6--7-------------|

Bridge - (Drums Only)

Chorus 8x
D|-----------------------------------|
A|-----------------------------------|
F|-----------------------------------|
C|---7--6--5--5--5--6--7-------------|
G|---7--6--5--5--5--6--7-------------|
C|---7--6--5--5--5--6--7-------------|
Tap to rate this tab
# A B C D E F G H I J K L M N O P Q R S T U V W X Y Z