Song name
# A B C D E F G H I J K L M N O P Q R S T U V W X Y Z

Misc Unsigned Bands - The Neutralized - Last Stand tab

my first tab. its a tab for my band. i needed to tab them for a friend and this is the easiest way. 

Intro
E|--------------------------------------------|
B|--------------------------------------------|
G|--------------------------------------------| 
D|----9~-6~-7-6-4-----------------------------| 
A|-7~-7~-4~-5-4-2-----------------------------|
E|-5~-----------------------------------------| 2x's


E|--------------------------------------------|
B|--------------------------------------------|
G|--------------------------------------------| 
D|----------99999999-66666666-7-6-4-----------| 
A|-77777777-77777777-44444444-5-4-2-----------|
E|-55555555-----------------------------------|2x's
   ........ ........ ........

Chorus
E|--------------------------------------------|
B|--------------------------------------------|
G|--------------------------------------------| 
D|----------99999999-66666666-7-6-4-----------| 
A|-77777777-77777777-44444444-5-4-2-----------|
E|-55555555-----------------------------------|4x's

Verse
E|--------------------------------------------|
B|--------------------------------------------|
G|--------------------------------------------| 
D|--------------777777777777------------------| 
A|-555555555555-555555555555------------------|
E|-333333333333-------------------------------|4x's
   ............ ............

Tap to rate this tab
# A B C D E F G H I J K L M N O P Q R S T U V W X Y Z