Song name
# A B C D E F G H I J K L M N O P Q R S T U V W X Y Z

Misc Unsigned Bands - The Neutralized - Cop tab

Song-C.O.P
Artist-The Neutralized

~ring note
. palm mute


Intro
E|--------------------------------------------|
B|--------------------------------------------|
G|--------------------------------------------| 
D|-7~-----------------------------------------| 
A|-5~--7~--55555555-77777777------------------|
E|-----5~--33333333-55555555------------------|
           ........ ........(palm mute)

Verse
E|--------------------------------------------|
B|--------------------------------------------|
G|--------------------------------------------| 
D|-77777777-----------------------------------| 
A|-55555555-7-55555555-99-777-----------------|
E|----------5-33333333-77-555-----------------|4x's

Chorus
E|--------------------------------------------|
B|--------------------------------------------|
G|--------------------------------------------| 
D|-----------7777-99-77 7---------------------| 
A|-5555-7777-5555-77-55-5---------------------|
E|-3333-5555----------------------------------|4x's

Bridge(slow part)
E|--------------------------------------------|
B|--------------------------------------------|
G|--------------------------------------------| 
D|-7~-----------------------------------------| 
A|-5~--7~--5~--9~-7~--------------------------|
E|-----5~--3~--7~-5~--------------------------|2x's

then...
E|--------------------------------------------|
B|--------------------------------------------|
G|--------------------------------------------| 
D|-77777777-----------------------------------| 
A|-55555555-7-55555555-99-777-----------------|
E|----------5-33333333-77-555-----------------|2x's
   ..........................
Tap to rate this tab
# A B C D E F G H I J K L M N O P Q R S T U V W X Y Z