Song name
# A B C D E F G H I J K L M N O P Q R S T U V W X Y Z

Misc Unsigned Bands - Zygote - Swimming In Chlorine tab

In regular tuning.  Bridge is a bit off, otherwise this should sound good.

Intro/Chorus
----------------------------------------------------------------------------|
-----------h.o.p.o.---------------------------------------------------------|
--11/--16--16-18-16--15--14--14--16--16--14------------h.o.p.o.-------------|
-------------------------------------------16--14--12--12-14-12-11--14--12--|
----------------------------------------------------------------------------|
----------------------------------------------------------------------------|

----------------------------------------------------------------------------|
------------------------------------------h.o.p.o.--------------------------|
-------------14-----------------------16--16-18-16--15--14--14--16--16--14--|
--14--14/16------16--14-----------------------------------------------------|
----------------------------------------------------------------------------|
----------------------------------------------------------------------------|


--------------------------------|
--------------------------------|
--------------h.o.p.o.----------|
--16--14--12--12-14-12--11--14--|
--------------------------------|
--------------------------------|

Verse (theres a lot of strumming where you cover the strings but dont press)
--------------|
--------------|
--4-----------|
--4---or---9--|
--2--------9--|
-----------7--|

Bridge
-------------------------------------|
-------------------------------------|
------------------------14-13--------|
--5-x-x-4-5/7/5-5/7/5-5-12-11-16-15--|
--3-x-x-2-3/5/3-3/5/3-3-------14-13--|
-------------------------------------|
Tap to rate this tab
# A B C D E F G H I J K L M N O P Q R S T U V W X Y Z